  0
SECTION
  2
HEADER
  9
$ACADVER
  1
AC1014
  9
$ACADMAINTVER
 70
     0
  9
$DWGCODEPAGE
  3
DOS850
  9
$INSBASE
 10
0.0
 20
0.0
 30
0.0
  9
$EXTMIN
 10
154.065599
 20
88.334797
 30
0.0
  9
$EXTMAX
 10
173.492676
 20
104.526622
 30
0.0
  9
$LIMMIN
 10
0.0
 20
0.0
  9
$LIMMAX
 10
0.0
 20
0.0
  9
$ORTHOMODE
 70
     0
  9
$REGENMODE
 70
     1
  9
$FILLMODE
 70
     1
  9
$QTEXTMODE
 70
     0
  9
$MIRRTEXT
 70
     1
  9
$DRAGMODE
 70
     2
  9
$LTSCALE
 40
1.0
  9
$OSMODE
 70
     0
  9
$ATTMODE
 70
     1
  9
$TEXTSIZE
 40
0.2
  9
$TRACEWID
 40
0.05
  9
$TEXTSTYLE
  7
STANDARD
  9
$CLAYER
  8
0
  9
$CELTYPE
  6
CONTINUOUS
  9
$CECOLOR
 62
   256
  9
$CELTSCALE
 40
1.0
  9
$DELOBJ
 70
     1
  9
$DISPSILH
 70
     0
  9
$DIMSCALE
 40
1.0
  9
$DIMASZ
 40
0.18
  9
$DIMEXO
 40
0.0625
  9
$DIMDLI
 40
0.38
  9
$DIMRND
 40
0.0
  9
$DIMDLE
 40
0.0
  9
$DIMEXE
 40
0.18
  9
$DIMTP
 40
0.0
  9
$DIMTM
 40
0.0
  9
$DIMTXT
 40
0.18
  9
$DIMCEN
 40
0.09
  9
$DIMTSZ
 40
0.0
  9
$DIMTOL
 70
     0
  9
$DIMLIM
 70
     0
  9
$DIMTIH
 70
     1
  9
$DIMTOH
 70
     1
  9
$DIMSE1
 70
     0
  9
$DIMSE2
 70
     0
  9
$DIMTAD
 70
     0
  9
$DIMZIN
 70
     0
  9
$DIMBLK
  1

  9
$DIMASO
 70
     1
  9
$DIMSHO
 70
     1
  9
$DIMPOST
  1

  9
$DIMAPOST
  1

  9
$DIMALT
 70
     0
  9
$DIMALTD
 70
     2
  9
$DIMALTF
 40
25.4
  9
$DIMLFAC
 40
1.0
  9
$DIMTOFL
 70
     0
  9
$DIMTVP
 40
0.0
  9
$DIMTIX
 70
     0
  9
$DIMSOXD
 70
     0
  9
$DIMSAH
 70
     0
  9
$DIMBLK1
  1

  9
$DIMBLK2
  1

  9
$DIMSTYLE
  2
STANDARD
  9
$DIMCLRD
 70
     0
  9
$DIMCLRE
 70
     0
  9
$DIMCLRT
 70
     0
  9
$DIMTFAC
 40
1.0
  9
$DIMGAP
 40
0.09
  9
$DIMJUST
 70
     0
  9
$DIMSD1
 70
     0
  9
$DIMSD2
 70
     0
  9
$DIMTOLJ
 70
     1
  9
$DIMTZIN
 70
     0
  9
$DIMALTZ
 70
     0
  9
$DIMALTTZ
 70
     0
  9
$DIMFIT
 70
     3
  9
$DIMUPT
 70
     0
  9
$DIMUNIT
 70
     2
  9
$DIMDEC
 70
     4
  9
$DIMTDEC
 70
     4
  9
$DIMALTU
 70
     2
  9
$DIMALTTD
 70
     2
  9
$DIMTXSTY
  7
STANDARD
  9
$DIMAUNIT
 70
     0
  9
$LUNITS
 70
     2
  9
$LUPREC
 70
     4
  9
$SKETCHINC
 40
0.1
  9
$FILLETRAD
 40
0.0
  9
$AUNITS
 70
     0
  9
$AUPREC
 70
     0
  9
$MENU
  1
acad
  9
$ELEVATION
 40
0.0
  9
$PELEVATION
 40
0.0
  9
$THICKNESS
 40
0.0
  9
$LIMCHECK
 70
     0
  9
$BLIPMODE
 70
     1
  9
$CHAMFERA
 40
0.0
  9
$CHAMFERB
 40
0.0
  9
$CHAMFERC
 40
0.0
  9
$CHAMFERD
 40
0.0
  9
$SKPOLY
 70
     0
  9
$TDCREATE
 40
0.000000000
  9
$TDUPDATE
 40
0.000000000
  9
$TDINDWG
 40
0.0000000000
  9
$TDUSRTIMER
 40
0.0000000000
  9
$USRTIMER
 70
     1
  9
$ANGBASE
 50
0.0
  9
$ANGDIR
 70
     0
  9
$PDMODE
 70
     0
  9
$PDSIZE
 40
0.0
  9
$PLINEWID
 40
0.0
  9
$COORDS
 70
     0
  9
$SPLFRAME
 70
     0
  9
$SPLINETYPE
 70
     6
  9
$SPLINESEGS
 70
     8
  9
$ATTDIA
 70
     0
  9
$ATTREQ
 70
     1
  9
$HANDLING
 70
     1
  9
$HANDSEED
  5
2A3
  9
$SURFTAB1
 70
     6
  9
$SURFTAB2
 70
     6
  9
$SURFTYPE
 70
     6
  9
$SURFU
 70
     6
  9
$SURFV
 70
     6
  9
$UCSNAME
  2

  9
$UCSORG
 10
0.0
 20
0.0
 30
0.0
  9
$UCSXDIR
 10
1.0
 20
0.0
 30
0.0
  9
$UCSYDIR
 10
0.0
 20
1.0
 30
0.0
  9
$PUCSNAME
  2

  9
$PUCSORG
 10
0.0
 20
0.0
 30
0.0
  9
$PUCSXDIR
 10
1.0
 20
0.0
 30
0.0
  9
$PUCSYDIR
 10
0.0
 20
1.0
 30
0.0
  9
$USERI1
 70
     0
  9
$USERI2
 70
     0
  9
$USERI3
 70
     0
  9
$USERI4
 70
     0
  9
$USERI5
 70
     0
  9
$USERR1
 40
0.0
  9
$USERR2
 40
0.0
  9
$USERR3
 40
0.0
  9
$USERR4
 40
0.0
  9
$USERR5
 40
0.0
  9
$WORLDVIEW
 70
     1
  9
$SHADEDGE
 70
     3
  9
$SHADEDIF
 70
    70
  9
$TILEMODE
 70
     1
  9
$MAXACTVP
 70
    16
  9
$PINSBASE
 10
0.0
 20
0.0
 30
0.0
  9
$PLIMCHECK
 70
     0
  9
$PEXTMIN
 10
1.000000E+20
 20
1.000000E+20
 30
1.000000E+20
  9
$PEXTMAX
 10
-1.000000E+20
 20
-1.000000E+20
 30
-1.000000E+20
  9
$PLIMMIN
 10
0.0
 20
0.0
  9
$PLIMMAX
 10
12.0
 20
9.0
  9
$UNITMODE
 70
     0
  9
$VISRETAIN
 70
     0
  9
$PLINEGEN
 70
     1
  9
$PSLTSCALE
 70
     0
  9
$TREEDEPTH
 70
  3020
  9
$PICKSTYLE
 70
     1
  9
$CMLSTYLE
  2
STANDARD
  9
$CMLJUST
 70
     0
  9
$CMLSCALE
 40
1.0
  9
$PROXYGRAPHICS
 70
     0
  9
$MEASUREMENT
 70
     0
  0
ENDSEC
  0
SECTION
  2
CLASSES
  0
CLASS
  1
LWPOLYLINE
  2
AcDbPolyline
  3
"AutoCAD"
 90
        0
280
     0
281
     1
  0
CLASS
  1
IMAGE
  2
AcDbRasterImage
  3
ISM
 90
      127
280
     0
281
     1
  0
CLASS
  1
OLE2FRAME
  2
AcDbOle2Frame
  3
""
 90
        0
280
     0
281
     1
  0
CLASS
  1
HATCH
  2
AcDbHatch
  3
"ACAD_SEDONA"
 90
        0
280
     0
281
     1
  0
CLASS
  1
DICTIONARYVAR
  2
AcDbDictionaryVar
  3
"AutoCAD"
 90
        0
280
     0
281
     0
  0
CLASS
  1
RASTERVARIABLES
  2
AcDbRasterVariables
  3
ISM
 90
        0
280
     0
281
     0
  0
CLASS
  1
IMAGEDEF
  2
AcDbRasterImageDef
  3
ISM
 90
        0
280
     0
281
     0
  0
CLASS
  1
IMAGEDEF_REACTOR
  2
AcDbRasterImageDefReactor
  3
ISM
 90
        1
280
     0
281
     0
  0
CLASS
  1
IDBUFFER
  2
AcDbIdBuffer
  3
"Acad"
 90
        0
280
     0
281
     0
  0
CLASS
  1
SPATIAL_FILTER
  2
AcDbSpatialFilter
  3
"Acad"
 90
        0
280
     0
281
     0
  0
CLASS
  1
XRECORD
  2
AcDbXrecord
  3
"<Built In>"
 90
        0
280
     0
281
     0
  0
CLASS
  1
SORTENTSTABLE
  2
AcDbSortentsTable
  3
"AutoCAD"
 90
        0
280
     0
281
     0
  0
CLASS
  1
LAYER_INDEX
  2
AcDbLayerIndex
  3
"Acad"
 90
        0
280
     0
281
     0
  0
CLASS
  1
SPATIAL_INDEX
  2
AcDbSpatialIndex
  3
"Acad"
 90
        0
280
     0
281
     0
  0
CLASS
  1
OBJECT_PTR
  2
CAseDLPNTableRecord
  3
"ASE-LPNTableRecord"
 90
        1
280
     0
281
     0
  0
CLASS
  1
LAYOUT
  2
AcDbLayout
  3
"AutoCAD 2000"
 90
        1
280
     0
281
     0
  0
CLASS
  1
PLOTSETTINGS
  2
AcDbPlotSettings
  3
"AutoCAD 2000"
 90
        1
280
     0
281
     0
  0
CLASS
  1
ACDBDICTIONARYWDFLT
  2
AcDbDictionaryWithDefault
  3
"AutoCAD 2000"
 90
        1
280
     0
281
     0
  0
CLASS
  1
ACDBPLACEHOLDER
  2
AcDbPlaceHolder
  3
"AutoCAD 2000"
 90
        1
280
     0
281
     0
  0
CLASS
  1
VBA_PROJECT
  2
AcDbVbaProject
  3
"acadvba"
 90
        1
280
     0
281
     0
  0
CLASS
  1
WIPEOUT
  2
AcDbWipeout
  3
WipeOut|AutoCAD Express Tool|expresstools@autodesk.com
 90
      127
280
     0
281
     1
  0
CLASS
  1
WIPEOUTVARIABLES
  2
AcDbWipeoutVariables
  3
WipeOut|AutoCAD Express Tool|expresstools@autodesk.com
 90
        0
280
     0
281
     0
  0
CLASS
  1
RTEXT
  2
RText
  3
RText|AutoCAD Express Tool|expresstools@autodesk.com
 90
        0
280
     0
281
     1
  0
CLASS
  1
ARCALIGNEDTEXT
  2
AcDbArcAlignedText
  3
ATEXT|AutoCAD Express Tool|expresstools@autodesk.com
 90
        0
280
     0
281
     1
  0
ENDSEC
  0
SECTION
  2
TABLES
  0
TABLE
  2
VPORT
  5
7
100
AcDbSymbolTable
 70
     1
  0
VPORT
  5
15
100
AcDbSymbolTableRecord
100
AcDbViewportTableRecord
  2
*ACTIVE
 70
     0
 10
0.0
 20
0.0
 11
1.0
 21
1.0
 12
6.591288
 22
4.579184
 13
0.0
 23
0.0
 14
1.0
 24
1.0
 15
0.0
 25
0.0
 16
0.0
 26
0.0
 36
1.0
 17
0.0
 27
0.0
 37
0.0
 40
9.158369
 41
0.688564
 42
50.0
 43
0.0
 44
0.0
 50
0.0
 51
0.0
 71
     0
 72
   100
 73
     1
 74
     1
 75
     0
 76
     0
 77
     0
 78
     0
  0
ENDTAB
  0
TABLE
  2
LTYPE
  5
4
100
AcDbSymbolTable
 70
     3
  0
LTYPE
  5
11
100
AcDbSymbolTableRecord
100
AcDbLinetypeTableRecord
  2
BYBLOCK
 70
    64
  3

 72
    65
 73
     0
 40
0.0
  0
LTYPE
  5
12
100
AcDbSymbolTableRecord
100
AcDbLinetypeTableRecord
  2
BYLAYER
 70
    64
  3

 72
    65
 73
     0
 40
0.0
  0
LTYPE
  5
13
100
AcDbSymbolTableRecord
100
AcDbLinetypeTableRecord
  2
CONTINUOUS
 70
    64
  3
Solid line
 72
    65
 73
     0
 40
0.0
  0
ENDTAB
  0
TABLE
  2
LAYER
  5
2
100
AcDbSymbolTable
 70
     7
  0
LAYER
  5
14
100
AcDbSymbolTableRecord
100
AcDbLayerTableRecord
  2
0
 70
     0
 62
     7
  6
CONTINUOUS
  0
LAYER
  5
1D
100
AcDbSymbolTableRecord
100
AcDbLayerTableRecord
  2
MERGE
 70
     0
 62
     7
  6
CONTINUOUS
  0
LAYER
  5
1E
100
AcDbSymbolTableRecord
100
AcDbLayerTableRecord
  2
STANDARD
 70
     0
 62
     7
  6
CONTINUOUS
  0
LAYER
  5
1F
100
AcDbSymbolTableRecord
100
AcDbLayerTableRecord
  2
TEXT
 70
     0
 62
     7
  6
CONTINUOUS
  0
LAYER
  5
20
100
AcDbSymbolTableRecord
100
AcDbLayerTableRecord
  2
FORMAT
 70
     0
 62
     7
  6
CONTINUOUS
  0
LAYER
  5
21
100
AcDbSymbolTableRecord
100
AcDbLayerTableRecord
  2
DIM
 70
     0
 62
     7
  6
CONTINUOUS
  0
LAYER
  5
22
100
AcDbSymbolTableRecord
100
AcDbLayerTableRecord
  2
PKG_INFO
 70
     0
 62
     7
  6
CONTINUOUS
  0
ENDTAB
  0
TABLE
  2
STYLE
  5
3
100
AcDbSymbolTable
 70
     6
  0
STYLE
  5
17
100
AcDbSymbolTableRecord
100
AcDbTextStyleTableRecord
  2
STANDARD
 70
     0
 40
0.0
 41
1.0
 50
0.0
 71
     0
 42
0.0
  3
txt
  4

  0
STYLE
  5
23
100
AcDbSymbolTableRecord
100
AcDbTextStyleTableRecord
  2
STYLE1
 70
     0
 40
0.0
 41
1.0
 50
0.0
 71
     0
 42
0.0
  3
Arial.ttf
  4

  0
STYLE
  5
24
100
AcDbSymbolTableRecord
100
AcDbTextStyleTableRecord
  2
STYLE2
 70
     0
 40
0.0
 41
1.0
 50
0.0
 71
     0
 42
0.0
  3
txt.SHX
  4

  0
STYLE
  5
25
100
AcDbSymbolTableRecord
100
AcDbTextStyleTableRecord
  2
STYLE3
 70
     0
 40
0.0
 41
1.0
 50
0.0
 71
     0
 42
0.0
  3
simplex.SHX
  4

  0
STYLE
  5
26
100
AcDbSymbolTableRecord
100
AcDbTextStyleTableRecord
  2
STYLE4
 70
     0
 40
0.0
 41
1.0
 50
0.0
 71
     0
 42
0.0
  3
hvsolid.shx
  4

  0
STYLE
  5
27
100
AcDbSymbolTableRecord
100
AcDbTextStyleTableRecord
  2
STYLE5
 70
     0
 40
0.0
 41
1.0
 50
0.0
 71
     0
 42
0.0
  3
simplex.SHX
  4

  0
ENDTAB
  0
TABLE
  2
VIEW
  5
5
100
AcDbSymbolTable
 70
     0
  0
ENDTAB
  0
TABLE
  2
UCS
  5
6
100
AcDbSymbolTable
 70
     0
  0
ENDTAB
  0
TABLE
  2
APPID
  5
8
100
AcDbSymbolTable
 70
     1
  0
APPID
  5
16
100
AcDbSymbolTableRecord
100
AcDbRegAppTableRecord
  2
ACAD
 70
     0
  0
ENDTAB
  0
TABLE
  2
DIMSTYLE
  5
9
100
AcDbSymbolTable
 70
     1
  0
DIMSTYLE
105
18
100
AcDbSymbolTableRecord
100
AcDbDimStyleTableRecord
  2
STANDARD
 70
     0
  3

  4

  5

  6

  7

 40
1.0
 41
0.18
 42
0.0625
 43
0.38
 44
0.18
 45
0.0
 46
0.0
 47
0.0
 48
0.0
 71
     0
 72
     0
 73
     1
 74
     1
 75
     0
 76
     0
 77
     0
 78
     0
140
0.18
141
0.09
142
0.0
143
25.4
144
1.0
145
0.0
146
1.0
147
0.09
170
     0
171
     2
172
     0
173
     0
174
     0
175
     0
176
     0
177
     0
178
     0
270
     2
271
     4
272
     4
273
     2
274
     2
275
     0
280
     0
281
     0
282
     0
283
     1
284
     0
285
     0
286
     0
287
     0
288
     0
340
17
  0
ENDTAB
  0
TABLE
  2
BLOCK_RECORD
  5
1
100
AcDbSymbolTable
 70
     1
  0
BLOCK_RECORD
  5
A
100
AcDbSymbolTableRecord
100
AcDbBlockTableRecord
  2
*MODEL_SPACE
  0
BLOCK_RECORD
  5
B
100
AcDbSymbolTableRecord
100
AcDbBlockTableRecord
  2
*PAPER_SPACE
  0
BLOCK_RECORD
  5
28
100
AcDbSymbolTableRecord
100
AcDbBlockTableRecord
  2
PKG_14
  0
ENDTAB
  0
ENDSEC
  0
SECTION
  2
BLOCKS
  0
BLOCK
  5
D
100
AcDbEntity
  8
0
100
AcDbBlockBegin
  2
*MODEL_SPACE
 70
     0
 10
0.0
 20
0.0
 30
0.0
  3
*MODEL_SPACE
  1

  0
ENDBLK
  5
E
100
AcDbEntity
  8
0
100
AcDbBlockEnd
  0
BLOCK
  5
F
100
AcDbEntity
 67
     1
  8
0
100
AcDbBlockBegin
  2
*PAPER_SPACE
 70
     0
 10
0.0
 20
0.0
 30
0.0
  3
*PAPER_SPACE
  1

  0
ENDBLK
  5
10
100
AcDbEntity
 67
     1
  8
0
100
AcDbBlockEnd
  0
BLOCK
  5
29
100
AcDbEntity
  8
0
 62
     7
100
AcDbBlockBegin
  2
PKG_14
 70
     0
 10
0.0
 20
0.0
 30
0.0
  3
PKG_14
  1

  0
TEXT
  5
2A
100
AcDbEntity
  8
PKG_INFO
 62
   180
100
AcDbText
 10
-0.17325
 20
0.0
 30
0.0
 40
0.07
  1
*SYM:= 32
  7
STYLE2
 72
     1
 11
0.0
 21
0.0
 31
0.0
100
AcDbText
  0
TEXT
  5
2B
100
AcDbEntity
  8
PKG_INFO
 62
   180
100
AcDbText
 10
-0.40425
 20
-0.12
 30
0.0
 40
0.07
  1
*PKG:=0 0 VIA-X30 GND
  7
STYLE2
 72
     1
 11
0.0
 21
-0.12
 31
0.0
100
AcDbText
  0
TEXT
  5
2C
100
AcDbEntity
  8
PKG_INFO
 62
   180
100
AcDbText
 10
-0.154
 20
-0.24
 30
0.0
 40
0.07
  1
*GATE:=0
  7
STYLE2
 72
     1
 11
0.0
 21
-0.24
 31
0.0
100
AcDbText
  0
TEXT
  5
2D
100
AcDbEntity
  8
PKG_INFO
 62
   180
100
AcDbText
 10
-0.40425
 20
-0.36
 30
0.0
 40
0.07
  1
*GATEPIN:=9 0 9 <> <>
  7
STYLE2
 72
     1
 11
0.0
 21
-0.36
 31
0.0
100
AcDbText
  0
TEXT
  5
2E
100
AcDbEntity
  8
PKG_INFO
 62
   180
100
AcDbText
 10
-0.4235
 20
-0.48
 30
0.0
 40
0.07
  1
*GATEPIN:=10 0 9 <> <>
  7
STYLE2
 72
     1
 11
0.0
 21
-0.48
 31
0.0
100
AcDbText
  0
TEXT
  5
2F
100
AcDbEntity
  8
PKG_INFO
 62
   180
100
AcDbText
 10
-0.4235
 20
-0.6
 30
0.0
 40
0.07
  1
*GATEPIN:=11 0 9 <> <>
  7
STYLE2
 72
     1
 11
0.0
 21
-0.6
 31
0.0
100
AcDbText
  0
TEXT
  5
30
100
AcDbEntity
  8
PKG_INFO
 62
   180
100
AcDbText
 10
-0.4235
 20
-0.72
 30
0.0
 40
0.07
  1
*GATEPIN:=12 0 9 <> <>
  7
STYLE2
 72
     1
 11
0.0
 21
-0.72
 31
0.0
100
AcDbText
  0
TEXT
  5
31
100
AcDbEntity
  8
PKG_INFO
 62
   180
100
AcDbText
 10
-0.4235
 20
-0.84
 30
0.0
 40
0.07
  1
*GATEPIN:=13 0 9 <> <>
  7
STYLE2
 72
     1
 11
0.0
 21
-0.84
 31
0.0
100
AcDbText
  0
TEXT
  5
32
100
AcDbEntity
  8
PKG_INFO
 62
   180
100
AcDbText
 10
-0.4235
 20
-0.96
 30
0.0
 40
0.07
  1
*GATEPIN:=14 0 9 <> <>
  7
STYLE2
 72
     1
 11
0.0
 21
-0.96
 31
0.0
100
AcDbText
  0
TEXT
  5
33
100
AcDbEntity
  8
PKG_INFO
 62
   180
100
AcDbText
 10
-0.4235
 20
-1.08
 30
0.0
 40
0.07
  1
*GATEPIN:=15 0 9 <> <>
  7
STYLE2
 72
     1
 11
0.0
 21
-1.08
 31
0.0
100
AcDbText
  0
TEXT
  5
34
100
AcDbEntity
  8
PKG_INFO
 62
   180
100
AcDbText
 10
-0.4235
 20
-1.2
 30
0.0
 40
0.07
  1
*GATEPIN:=16 0 9 <> <>
  7
STYLE2
 72
     1
 11
0.0
 21
-1.2
 31
0.0
100
AcDbText
  0
TEXT
  5
35
100
AcDbEntity
  8
PKG_INFO
 62
   180
100
AcDbText
 10
-0.4235
 20
-1.32
 30
0.0
 40
0.07
  1
*GATEPIN:=17 0 9 <> <>
  7
STYLE2
 72
     1
 11
0.0
 21
-1.32
 31
0.0
100
AcDbText
  0
TEXT
  5
36
100
AcDbEntity
  8
PKG_INFO
 62
   180
100
AcDbText
 10
-0.4235
 20
-1.44
 30
0.0
 40
0.07
  1
*GATEPIN:=18 0 9 <> <>
  7
STYLE2
 72
     1
 11
0.0
 21
-1.44
 31
0.0
100
AcDbText
  0
TEXT
  5
37
100
AcDbEntity
  8
PKG_INFO
 62
   180
100
AcDbText
 10
-0.4235
 20
-1.56
 30
0.0
 40
0.07
  1
*GATEPIN:=19 0 9 <> <>
  7
STYLE2
 72
     1
 11
0.0
 21
-1.56
 31
0.0
100
AcDbText
  0
TEXT
  5
38
100
AcDbEntity
  8
PKG_INFO
 62
   180
100
AcDbText
 10
-0.4235
 20
-1.68
 30
0.0
 40
0.07
  1
*GATEPIN:=20 0 9 <> <>
  7
STYLE2
 72
     1
 11
0.0
 21
-1.68
 31
0.0
100
AcDbText
  0
TEXT
  5
39
100
AcDbEntity
  8
PKG_INFO
 62
   180
100
AcDbText
 10
-0.4235
 20
-1.8
 30
0.0
 40
0.07
  1
*GATEPIN:=21 0 9 <> <>
  7
STYLE2
 72
     1
 11
0.0
 21
-1.8
 31
0.0
100
AcDbText
  0
TEXT
  5
3A
100
AcDbEntity
  8
PKG_INFO
 62
   180
100
AcDbText
 10
-0.4235
 20
-1.92
 30
0.0
 40
0.07
  1
*GATEPIN:=22 0 9 <> <>
  7
STYLE2
 72
     1
 11
0.0
 21
-1.92
 31
0.0
100
AcDbText
  0
TEXT
  5
3B
100
AcDbEntity
  8
PKG_INFO
 62
   180
100
AcDbText
 10
-0.40425
 20
-2.04
 30
0.0
 40
0.07
  1
*GATEPIN:=8 0 9 <> <>
  7
STYLE2
 72
     1
 11
0.0
 21
-2.04
 31
0.0
100
AcDbText
  0
TEXT
  5
3C
100
AcDbEntity
  8
PKG_INFO
 62
   180
100
AcDbText
 10
-0.40425
 20
-2.16
 30
0.0
 40
0.07
  1
*GATEPIN:=7 0 9 <> <>
  7
STYLE2
 72
     1
 11
0.0
 21
-2.16
 31
0.0
100
AcDbText
  0
TEXT
  5
3D
100
AcDbEntity
  8
PKG_INFO
 62
   180
100
AcDbText
 10
-0.40425
 20
-2.28
 30
0.0
 40
0.07
  1
*GATEPIN:=6 0 9 <> <>
  7
STYLE2
 72
     1
 11
0.0
 21
-2.28
 31
0.0
100
AcDbText
  0
TEXT
  5
3E
100
AcDbEntity
  8
PKG_INFO
 62
   180
100
AcDbText
 10
-0.40425
 20
-2.4
 30
0.0
 40
0.07
  1
*GATEPIN:=5 0 9 <> <>
  7
STYLE2
 72
     1
 11
0.0
 21
-2.4
 31
0.0
100
AcDbText
  0
TEXT
  5
3F
100
AcDbEntity
  8
PKG_INFO
 62
   180
100
AcDbText
 10
-0.40425
 20
-2.52
 30
0.0
 40
0.07
  1
*GATEPIN:=4 0 9 <> <>
  7
STYLE2
 72
     1
 11
0.0
 21
-2.52
 31
0.0
100
AcDbText
  0
TEXT
  5
40
100
AcDbEntity
  8
PKG_INFO
 62
   180
100
AcDbText
 10
-0.40425
 20
-2.64
 30
0.0
 40
0.07
  1
*GATEPIN:=3 0 9 <> <>
  7
STYLE2
 72
     1
 11
0.0
 21
-2.64
 31
0.0
100
AcDbText
  0
TEXT
  5
41
100
AcDbEntity
  8
PKG_INFO
 62
   180
100
AcDbText
 10
-0.40425
 20
-2.76
 30
0.0
 40
0.07
  1
*GATEPIN:=2 0 9 <> <>
  7
STYLE2
 72
     1
 11
0.0
 21
-2.76
 31
0.0
100
AcDbText
  0
TEXT
  5
42
100
AcDbEntity
  8
PKG_INFO
 62
   180
100
AcDbText
 10
-0.40425
 20
-2.88
 30
0.0
 40
0.07
  1
*GATEPIN:=1 0 9 <> <>
  7
STYLE2
 72
     1
 11
0.0
 21
-2.88
 31
0.0
100
AcDbText
  0
TEXT
  5
43
100
AcDbEntity
  8
PKG_INFO
 62
   180
100
AcDbText
 10
-0.4235
 20
-3.0
 30
0.0
 40
0.07
  1
*GATEPIN:=23 0 9 <> <>
  7
STYLE2
 72
     1
 11
0.0
 21
-3.0
 31
0.0
100
AcDbText
  0
TEXT
  5
44
100
AcDbEntity
  8
PKG_INFO
 62
   180
100
AcDbText
 10
-0.4235
 20
-3.12
 30
0.0
 40
0.07
  1
*GATEPIN:=24 0 9 <> <>
  7
STYLE2
 72
     1
 11
0.0
 21
-3.12
 31
0.0
100
AcDbText
  0
TEXT
  5
45
100
AcDbEntity
  8
PKG_INFO
 62
   180
100
AcDbText
 10
-0.4235
 20
-3.24
 30
0.0
 40
0.07
  1
*GATEPIN:=25 0 9 <> <>
  7
STYLE2
 72
     1
 11
0.0
 21
-3.24
 31
0.0
100
AcDbText
  0
TEXT
  5
46
100
AcDbEntity
  8
PKG_INFO
 62
   180
100
AcDbText
 10
-0.4235
 20
-3.36
 30
0.0
 40
0.07
  1
*GATEPIN:=26 0 9 <> <>
  7
STYLE2
 72
     1
 11
0.0
 21
-3.36
 31
0.0
100
AcDbText
  0
TEXT
  5
47
100
AcDbEntity
  8
PKG_INFO
 62
   180
100
AcDbText
 10
-0.4235
 20
-3.48
 30
0.0
 40
0.07
  1
*GATEPIN:=27 0 9 <> <>
  7
STYLE2
 72
     1
 11
0.0
 21
-3.48
 31
0.0
100
AcDbText
  0
TEXT
  5
48
100
AcDbEntity
  8
PKG_INFO
 62
   180
100
AcDbText
 10
-0.4235
 20
-3.6
 30
0.0
 40
0.07
  1
*GATEPIN:=28 0 9 <> <>
  7
STYLE2
 72
     1
 11
0.0
 21
-3.6
 31
0.0
100
AcDbText
  0
TEXT
  5
49
100
AcDbEntity
  8
PKG_INFO
 62
   180
100
AcDbText
 10
-0.4235
 20
-3.72
 30
0.0
 40
0.07
  1
*GATEPIN:=29 0 9 <> <>
  7
STYLE2
 72
     1
 11
0.0
 21
-3.72
 31
0.0
100
AcDbText
  0
TEXT
  5
4A
100
AcDbEntity
  8
PKG_INFO
 62
   180
100
AcDbText
 10
-0.4235
 20
-3.84
 30
0.0
 40
0.07
  1
*GATEPIN:=30 0 9 <> <>
  7
STYLE2
 72
     1
 11
0.0
 21
-3.84
 31
0.0
100
AcDbText
  0
ENDBLK
  5
4B
100
AcDbEntity
  8
PKG_INFO
 62
   180
100
AcDbBlockEnd
  0
ENDSEC
  0
SECTION
  2
ENTITIES
  0
TEXT
  5
4C
100
AcDbEntity
  8
FORMAT
 62
     7
100
AcDbText
 10
164.615923
 20
99.111574
 30
0.0
 40
0.126
  1
7    DOES NOT INCLUDE INTER-LEAD FLASH OR PROTRUSIONS,
  7
STYLE2
100
AcDbText
  0
TEXT
  5
4D
100
AcDbEntity
  8
FORMAT
 62
     7
100
AcDbText
 10
164.505197
 20
98.883002
 30
0.0
 40
0.126
  1
      WHICH SHALL NOT EXCEED .25mm(.010in) PER SIDE.
  7
STYLE2
100
AcDbText
  0
TEXT
  5
4E
100
AcDbEntity
  8
FORMAT
 62
     7
100
AcDbText
 10
164.615923
 20
99.708097
 30
0.0
 40
0.126
  1
6    LENGTH OF TERMINAL FOR SOLDERING TO A SUBSTRATE.
  7
STYLE2
100
AcDbText
  0
TEXT
  5
4F
100
AcDbEntity
  8
FORMAT
 62
     7
100
AcDbText
 10
164.615923
 20
100.729362
 30
0.0
 40
0.126
  1
     PER SIDE.
  7
STYLE2
100
AcDbText
  0
TEXT
  5
50
100
AcDbEntity
  8
FORMAT
 62
     7
100
AcDbText
 10
165.107483
 20
103.30175
 30
0.0
 40
0.126
  1
OUTLINE (SO) PERIPHERAL TERMINALS 3.75mm
  7
STYLE2
100
AcDbText
  0
TEXT
  5
51
100
AcDbEntity
  8
FORMAT
 62
     7
100
AcDbText
 10
165.107483
 20
103.534959
 30
0.0
 40
0.126
  1
TO JEDEC STANDARD MS-012, ISSUE C FOR SMALL
  7
STYLE2
100
AcDbText
  0
TEXT
  5
52
100
AcDbEntity
  8
FORMAT
 62
     7
100
AcDbText
 10
165.107483
 20
103.048179
 30
0.0
 40
0.126
  1
BODY WIDTH (PLASTIC).
  7
STYLE2
100
AcDbText
  0
TEXT
  5
53
100
AcDbEntity
  8
FORMAT
 62
     7
100
AcDbText
 10
164.615923
 20
103.778592
 30
0.0
 40
0.126
  1
1.   EXCEPT WHERE NOTED, THIS PART OUTLINE CONFORMS 
  7
STYLE2
100
AcDbText
  0
TEXT
  5
54
100
AcDbEntity
  8
FORMAT
 62
     7
100
AcDbText
 10
164.615923
 20
100.312126
 30
0.0
 40
0.126
  1
5    DEVIATION FROM JEDEC MS-012 STANDARD.
  7
STYLE2
100
AcDbText
  0
TEXT
  5
55
100
AcDbEntity
  8
FORMAT
 62
     7
100
AcDbText
 10
164.615923
 20
100.971589
 30
0.0
 40
0.126
  1
     GATE BURRS, WHICH SHALL NOT EXCEED .15mm(.006in)
  7
STYLE2
100
AcDbText
  0
TEXT
  5
56
100
AcDbEntity
  8
FORMAT
 62
     7
100
AcDbText
 10
164.615923
 20
101.20016
 30
0.0
 40
0.126
  1
4    DOES NOT INCLUDE MOLD FLASH, PROTRUSIONS OR
  7
STYLE2
100
AcDbText
  0
TEXT
  5
57
100
AcDbEntity
  8
FORMAT
 62
     7
100
AcDbText
 10
164.615923
 20
101.859811
 30
0.0
 40
0.126
  1
3.   ALL DIMENSIONS ARE IN MILLIMETERS.  ANGLES ARE 
  7
STYLE2
100
AcDbText
  0
TEXT
  5
58
100
AcDbEntity
  8
FORMAT
 62
     7
100
AcDbText
 10
164.615923
 20
102.476517
 30
0.0
 40
0.126
  1
2.   DIMENSIONING & TOLERANCING CONFORM TO ASME 
  7
STYLE2
100
AcDbText
  0
TEXT
  5
59
100
AcDbEntity
  8
FORMAT
 62
     7
100
AcDbText
 10
164.618474
 20
104.14459
 30
0.0
 40
0.126
  1
NOTES:
  7
STYLE3
100
AcDbText
  0
TEXT
  5
5A
100
AcDbEntity
  8
FORMAT
 62
     7
100
AcDbText
 10
165.334628
 20
102.238424
 30
0.0
 40
0.126
  1
Y14.4M-1994.
  7
STYLE2
100
AcDbText
  0
TEXT
  5
5B
100
AcDbEntity
  8
FORMAT
 62
     7
100
AcDbText
 10
165.382915
 20
101.615547
 30
0.0
 40
0.126
  1
IN DEGREES.
  7
STYLE2
100
AcDbText
  0
LINE
  5
5C
100
AcDbEntity
  8
0
 62
     7
100
AcDbLine
 10
166.636622
 20
94.69206
 30
0.0
 11
166.249408
 21
94.671767
 31
0.0
  0
LINE
  5
5D
100
AcDbEntity
  8
0
 62
     7
100
AcDbLine
 10
166.260922
 20
94.452069
 30
0.0
 11
166.723342
 21
94.476303
 31
0.0
  0
POLYLINE
  5
5E
100
AcDbEntity
  8
DIM
 62
     7
100
AcDb2dPolyline
 66
     1
 10
0.0
 20
0.0
 30
0.0
  0
VERTEX
  5
5F
100
AcDbEntity
  8
DIM
 62
     7
100
AcDbVertex
100
AcDb2dVertex
 10
167.460206
 20
95.678793
 30
0.0
  0
VERTEX
  5
60
100
AcDbEntity
  8
DIM
 62
     7
100
AcDbVertex
100
AcDb2dVertex
 10
166.096771
 20
96.880393
 30
0.0
  0
VERTEX
  5
61
100
AcDbEntity
  8
DIM
 62
     7
100
AcDbVertex
100
AcDb2dVertex
 10
165.901523
 20
96.880538
 30
0.0
  0
SEQEND
  5
62
100
AcDbEntity
  8
0
  0
SOLID
  5
63
100
AcDbEntity
  8
DIM
 62
     7
100
AcDbTrace
 10
167.460206
 20
95.678793
 30
0.0
 11
167.351609
 21
95.827811
 31
0.0
 12
167.29872
 22
95.767799
 32
0.0
 13
167.460206
 23
95.678793
 33
0.0
  0
LINE
  5
64
100
AcDbEntity
  8
DIM
 62
     7
100
AcDbLine
 10
166.644311
 20
94.853966
 30
0.0
 11
165.133027
 21
94.853966
 31
0.0
  0
LINE
  5
65
100
AcDbEntity
  8
0
 62
     7
100
AcDbLine
 10
156.425584
 20
103.361358
 30
0.0
 11
161.02389
 21
103.361358
 31
0.0
  0
LINE
  5
66
100
AcDbEntity
  8
0
 62
     7
100
AcDbLine
 10
161.075482
 20
103.412951
 30
0.0
 11
156.373991
 21
103.412951
 31
0.0
  0
LINE
  5
67
100
AcDbEntity
  8
0
 62
     7
100
AcDbLine
 10
161.126514
 20
99.52737
 30
0.0
 11
156.32296
 21
99.52737
 31
0.0
  0
LINE
  5
68
100
AcDbEntity
  8
0
 62
     7
100
AcDbLine
 10
161.02389
 20
99.858661
 30
0.0
 11
156.425584
 21
99.858661
 31
0.0
  0
LINE
  5
69
100
AcDbEntity
  8
0
 62
     7
100
AcDbLine
 10
156.374454
 20
95.143985
 30
0.0
 11
156.609904
 21
95.143603
 31
0.0
  0
LINE
  5
6A
100
AcDbEntity
  8
0
 62
     7
100
AcDbLine
 10
156.374454
 20
95.357869
 30
0.0
 11
156.609904
 21
95.357869
 31
0.0
  0
LINE
  5
6B
100
AcDbEntity
  8
0
 62
     7
100
AcDbLine
 10
156.374454
 20
95.357869
 30
0.0
 11
156.609904
 21
95.357869
 31
0.0
  0
LINE
  5
6C
100
AcDbEntity
  8
0
 62
     7
100
AcDbLine
 10
156.609904
 20
94.630869
 30
0.0
 11
156.425178
 21
94.630869
 31
0.0
  0
LINE
  5
6D
100
AcDbEntity
  8
0
 62
     7
100
AcDbLine
 10
156.29606
 20
95.533833
 30
0.0
 11
161.152848
 21
95.533833
 31
0.0
  0
LINE
  5
6E
100
AcDbEntity
  8
0
 62
     7
100
AcDbLine
 10
156.425301
 20
95.865869
 30
0.0
 11
161.023607
 21
95.865869
 31
0.0
  0
TEXT
  5
6F
100
AcDbEntity
  8
DIM
 62
     7
100
AcDbText
 10
157.803393
 20
101.815579
 30
0.0
 40
0.889
  1
GSF
 41
0.767562
  7
STYLE4
100
AcDbText
  0
TEXT
  5
70
100
AcDbEntity
  8
DIM
 62
     7
100
AcDbText
 10
157.803393
 20
100.482079
 30
0.0
 40
0.889
  1
XXX
 41
0.767562
  7
STYLE4
100
AcDbText
  0
ARC
  5
71
100
AcDbEntity
  8
0
 62
     7
100
AcDbCircle
 10
156.819186
 20
100.335394
 30
0.0
 40
0.127
100
AcDbArc
 50
180.0
 51
360.0
  0
ARC
  5
72
100
AcDbEntity
  8
0
 62
     7
100
AcDbCircle
 10
156.819186
 20
100.335394
 30
0.0
 40
0.127
100
AcDbArc
 50
0.0
 51
180.0
  0
POLYLINE
  5
73
100
AcDbEntity
  8
DIM
 62
     7
100
AcDb2dPolyline
 66
     1
 10
0.0
 20
0.0
 30
0.0
  0
VERTEX
  5
74
100
AcDbEntity
  8
DIM
 62
     7
100
AcDbVertex
100
AcDb2dVertex
 10
156.57863
 20
100.410267
 30
0.0
  0
VERTEX
  5
75
100
AcDbEntity
  8
DIM
 62
     7
100
AcDbVertex
100
AcDb2dVertex
 10
155.812505
 20
100.857559
 30
0.0
  0
VERTEX
  5
76
100
AcDbEntity
  8
DIM
 62
     7
100
AcDbVertex
100
AcDb2dVertex
 10
155.588752
 20
100.824648
 30
0.0
  0
SEQEND
  5
77
100
AcDbEntity
  8
0
  0
SOLID
  5
78
100
AcDbEntity
  8
DIM
 62
     7
100
AcDbTrace
 10
156.57863
 20
100.410267
 30
0.0
 11
156.44335
 21
100.535563
 31
0.0
 12
156.403018
 22
100.466482
 32
0.0
 13
156.57863
 23
100.410267
 33
0.0
  0
LINE
  5
79
100
AcDbEntity
  8
DIM
 62
     7
100
AcDbLine
 10
156.473354
 20
96.43108
 30
0.0
 11
158.043737
 21
96.43108
 31
0.0
  0
ARC
  5
7A
100
AcDbEntity
  8
0
 62
     7
100
AcDbCircle
 10
156.425301
 20
95.765869
 30
0.0
 40
0.1
100
AcDbArc
 50
90.0
 51
173.0
  0
LINE
  5
7B
100
AcDbEntity
  8
DIM
 62
     7
100
AcDbLine
 10
156.273354
 20
95.6406
 30
0.0
 11
156.273354
 21
96.61108
 31
0.0
  0
TEXT
  5
7C
100
AcDbEntity
  8
FORMAT
 62
     7
100
AcDbText
 10
155.379517
 20
93.725006
 30
0.0
 40
0.126
  1
SEATING PLANE
  7
STYLE2
 72
     1
 11
155.829967
 21
93.788006
 31
0.0
100
AcDbText
 73
     2
  0
POLYLINE
  5
7D
100
AcDbEntity
  8
DIM
 62
     7
100
AcDb2dPolyline
 66
     1
 10
0.0
 20
0.0
 30
0.0
  0
VERTEX
  5
7E
100
AcDbEntity
  8
DIM
 62
     7
100
AcDbVertex
100
AcDb2dVertex
 10
155.358815
 20
94.451869
 30
0.0
  0
VERTEX
  5
7F
100
AcDbEntity
  8
DIM
 62
     7
100
AcDbVertex
100
AcDb2dVertex
 10
155.218124
 20
94.054158
 30
0.0
  0
VERTEX
  5
80
100
AcDbEntity
  8
DIM
 62
     7
100
AcDbVertex
100
AcDb2dVertex
 10
155.495977
 20
94.054158
 30
0.0
  0
SEQEND
  5
81
100
AcDbEntity
  8
0
  0
SOLID
  5
82
100
AcDbEntity
  8
DIM
 62
     7
100
AcDbTrace
 10
155.358815
 20
94.451869
 30
0.0
 11
155.261079
 21
94.295513
 31
0.0
 12
155.336491
 22
94.268835
 32
0.0
 13
155.358815
 23
94.451869
 33
0.0
  0
TEXT
  5
83
100
AcDbEntity
  8
TEXT
 62
     7
100
AcDbText
 10
155.311652
 20
95.004405
 30
0.0
 40
0.18
  1
C
  7
STYLE3
 72
     1
 11
155.361152
 21
95.094405
 31
0.0
100
AcDbText
 73
     2
  0
LINE
  5
84
100
AcDbEntity
  8
TEXT
 62
     7
100
AcDbLine
 10
155.178537
 20
95.27358
 30
0.0
 11
155.538537
 21
95.27358
 31
0.0
  0
LINE
  5
85
100
AcDbEntity
  8
DIM
 62
     7
100
AcDbLine
 10
155.410594
 20
94.630869
 30
0.0
 11
155.30648
 21
94.630869
 31
0.0
  0
LINE
  5
86
100
AcDbEntity
  8
DIM
 62
     7
100
AcDbLine
 10
155.30648
 20
94.630869
 30
0.0
 11
155.358537
 21
94.721035
 31
0.0
  0
LINE
  5
87
100
AcDbEntity
  8
STANDARD
 62
     7
100
AcDbLine
 10
155.410594
 20
94.630869
 30
0.0
 11
155.358537
 21
94.721035
 31
0.0
  0
LINE
  5
88
100
AcDbEntity
  8
STANDARD
 62
     7
100
AcDbLine
 10
155.358537
 20
94.721035
 30
0.0
 11
155.30648
 21
94.630869
 31
0.0
  0
LINE
  5
89
100
AcDbEntity
  8
DIM
 62
     7
100
AcDbLine
 10
155.30648
 20
94.630869
 30
0.0
 11
155.410594
 21
94.630869
 31
0.0
  0
LINE
  5
8A
100
AcDbEntity
  8
TEXT
 62
     7
100
AcDbLine
 10
155.178537
 20
94.91358
 30
0.0
 11
155.538537
 21
94.91358
 31
0.0
  0
LINE
  5
8B
100
AcDbEntity
  8
DIM
 62
     7
100
AcDbLine
 10
156.566737
 20
94.451869
 30
0.0
 11
154.488026
 21
94.451869
 31
0.0
  0
LINE
  5
8C
100
AcDbEntity
  8
DIM
 62
     7
100
AcDbLine
 10
156.288822
 20
94.630869
 30
0.0
 11
154.488026
 21
94.630869
 31
0.0
  0
SOLID
  5
8D
100
AcDbEntity
  8
DIM
 62
     7
100
AcDbTrace
 10
154.634693
 20
94.830869
 30
0.0
 11
154.701359
 21
94.830869
 31
0.0
 12
154.668026
 22
94.630869
 32
0.0
 13
154.668026
 23
94.630869
 33
0.0
  0
SOLID
  5
8E
100
AcDbEntity
  8
DIM
 62
     7
100
AcDbTrace
 10
154.634693
 20
94.251869
 30
0.0
 11
154.701359
 21
94.251869
 31
0.0
 12
154.668026
 22
94.451869
 32
0.0
 13
154.668026
 23
94.451869
 33
0.0
  0
TEXT
  5
8F
100
AcDbEntity
  8
FORMAT
 62
     7
100
AcDbText
 10
154.161773
 20
93.988869
 30
0.0
 40
0.126
  1
A1
  7
STYLE2
 72
     1
 11
154.231073
 21
94.051869
 31
0.0
100
AcDbText
 73
     2
  0
LINE
  5
90
100
AcDbEntity
  8
DIM
 62
     7
100
AcDbLine
 10
154.668026
 20
94.051869
 30
0.0
 11
154.468026
 21
94.051869
 31
0.0
  0
LINE
  5
91
100
AcDbEntity
  8
DIM
 62
     7
100
AcDbLine
 10
154.668026
 20
94.251869
 30
0.0
 11
154.668026
 21
94.051869
 31
0.0
  0
LINE
  5
92
100
AcDbEntity
  8
DIM
 62
     7
100
AcDbLine
 10
154.668026
 20
94.830869
 30
0.0
 11
154.668026
 21
95.030869
 31
0.0
  0
LINE
  5
93
100
AcDbEntity
  8
TEXT
 62
     7
100
AcDbLine
 10
155.178537
 20
94.91358
 30
0.0
 11
155.178537
 21
95.27358
 31
0.0
  0
ARC
  5
94
100
AcDbEntity
  8
0
 62
     7
100
AcDbCircle
 10
156.425178
 20
94.730869
 30
0.0
 40
0.1
100
AcDbArc
 50
187.0
 51
270.0
  0
LINE
  5
95
100
AcDbEntity
  8
DIM
 62
     7
100
AcDbLine
 10
155.410594
 20
94.630869
 30
0.0
 11
155.358537
 21
94.721035
 31
0.0
  0
LINE
  5
96
100
AcDbEntity
  8
DIM
 62
     7
100
AcDbLine
 10
155.358537
 20
94.721035
 30
0.0
 11
155.358537
 21
94.91358
 31
0.0
  0
LINE
  5
97
100
AcDbEntity
  8
TEXT
 62
     7
100
AcDbLine
 10
155.538537
 20
94.91358
 30
0.0
 11
155.538537
 21
95.27358
 31
0.0
  0
LINE
  5
98
100
AcDbEntity
  8
0
 62
     7
100
AcDbLine
 10
156.374454
 20
95.143985
 30
0.0
 11
156.274454
 21
95.143985
 31
0.0
  0
ARC
  5
99
100
AcDbEntity
  8
0
 62
     7
100
AcDbCircle
 10
156.374454
 20
95.143985
 30
0.0
 40
0.1
100
AcDbArc
 50
180.0
 51
187.0
  0
LINE
  5
9A
100
AcDbEntity
  8
0
 62
     7
100
AcDbLine
 10
156.274454
 20
95.357869
 30
0.0
 11
156.374454
 21
95.357869
 31
0.0
  0
LINE
  5
9B
100
AcDbEntity
  8
0
 62
     7
100
AcDbLine
 10
156.274454
 20
95.143985
 30
0.0
 11
156.274454
 21
95.357869
 31
0.0
  0
LINE
  5
9C
100
AcDbEntity
  8
0
 62
     7
100
AcDbLine
 10
156.288874
 20
95.475309
 30
0.0
 11
156.326046
 21
95.778056
 31
0.0
  0
LINE
  5
9D
100
AcDbEntity
  8
0
 62
     7
100
AcDbLine
 10
156.374454
 20
95.357869
 30
0.0
 11
156.274454
 21
95.357869
 31
0.0
  0
LINE
  5
9E
100
AcDbEntity
  8
0
 62
     7
100
AcDbLine
 10
156.274454
 20
95.357869
 30
0.0
 11
156.288874
 21
95.475309
 31
0.0
  0
LINE
  5
9F
100
AcDbEntity
  8
0
 62
     7
100
AcDbLine
 10
156.274454
 20
95.143985
 30
0.0
 11
156.275199
 21
95.131798
 31
0.0
  0
LINE
  5
A0
100
AcDbEntity
  8
0
 62
     7
100
AcDbLine
 10
156.274454
 20
95.143985
 30
0.0
 11
156.274454
 21
95.143985
 31
0.0
  0
LINE
  5
A1
100
AcDbEntity
  8
0
 62
     7
100
AcDbLine
 10
156.325924
 20
94.718682
 30
0.0
 11
156.275199
 21
95.131798
 31
0.0
  0
LINE
  5
A2
100
AcDbEntity
  8
0
 62
     7
100
AcDbLine
 10
156.274737
 20
99.611565
 30
0.0
 11
156.274737
 21
103.313696
 31
0.0
  0
LINE
  5
A3
100
AcDbEntity
  8
0
 62
     7
100
AcDbLine
 10
156.326329
 20
99.929372
 30
0.0
 11
156.326329
 21
103.262104
 31
0.0
  0
SOLID
  5
A4
100
AcDbEntity
  8
DIM
 62
     7
100
AcDbTrace
 10
156.473354
 20
96.464413
 30
0.0
 11
156.473354
 21
96.397747
 31
0.0
 12
156.273354
 22
96.43108
 32
0.0
 13
156.273354
 23
96.43108
 33
0.0
  0
LINE
  5
A5
100
AcDbEntity
  8
0
 62
     7
100
AcDbLine
 10
156.388411
 20
99.52737
 30
0.0
 11
156.388411
 21
99.52737
 31
0.0
  0
LINE
  5
A6
100
AcDbEntity
  8
0
 62
     7
100
AcDbLine
 10
156.425584
 20
99.858661
 30
0.0
 11
156.384907
 21
99.52737
 31
0.0
  0
LINE
  5
A7
100
AcDbEntity
  8
0
 62
     7
100
AcDbLine
 10
156.282625
 20
99.573432
 30
0.0
 11
156.326329
 21
99.929372
 31
0.0
  0
POLYLINE
  5
A8
100
AcDbEntity
  8
0
 62
     7
100
AcDb2dPolyline
 66
     1
 10
0.0
 20
0.0
 30
0.0
  0
VERTEX
  5
A9
100
AcDbEntity
  8
0
 62
     7
100
AcDbVertex
100
AcDb2dVertex
 10
156.326329
 20
99.929372
 30
0.0
  0
VERTEX
  5
AA
100
AcDbEntity
  8
0
 62
     7
100
AcDbVertex
100
AcDb2dVertex
 10
156.329617
 20
99.916277
 30
0.0
  0
VERTEX
  5
AB
100
AcDbEntity
  8
0
 62
     7
100
AcDbVertex
100
AcDb2dVertex
 10
156.3362
 20
99.903632
 30
0.0
  0
VERTEX
  5
AC
100
AcDbEntity
  8
0
 62
     7
100
AcDbVertex
100
AcDb2dVertex
 10
156.345852
 20
99.89187
 30
0.0
  0
VERTEX
  5
AD
100
AcDbEntity
  8
0
 62
     7
100
AcDbVertex
100
AcDb2dVertex
 10
156.358242
 20
99.881396
 30
0.0
  0
VERTEX
  5
AE
100
AcDbEntity
  8
0
 62
     7
100
AcDbVertex
100
AcDb2dVertex
 10
156.372944
 20
99.87257
 30
0.0
  0
VERTEX
  5
AF
100
AcDbEntity
  8
0
 62
     7
100
AcDbVertex
100
AcDb2dVertex
 10
156.389453
 20
99.865694
 30
0.0
  0
VERTEX
  5
B0
100
AcDbEntity
  8
0
 62
     7
100
AcDbVertex
100
AcDb2dVertex
 10
156.407203
 20
99.861004
 30
0.0
  0
VERTEX
  5
B1
100
AcDbEntity
  8
0
 62
     7
100
AcDbVertex
100
AcDb2dVertex
 10
156.425584
 20
99.858661
 30
0.0
  0
SEQEND
  5
B2
100
AcDbEntity
  8
0
  0
POLYLINE
  5
B3
100
AcDbEntity
  8
0
 62
     7
100
AcDb2dPolyline
 66
     1
 10
0.0
 20
0.0
 30
0.0
  0
VERTEX
  5
B4
100
AcDbEntity
  8
0
 62
     7
100
AcDbVertex
100
AcDb2dVertex
 10
156.373991
 20
99.512951
 30
0.0
  0
VERTEX
  5
B5
100
AcDbEntity
  8
0
 62
     7
100
AcDbVertex
100
AcDb2dVertex
 10
156.35455
 20
99.51485
 30
0.0
  0
VERTEX
  5
B6
100
AcDbEntity
  8
0
 62
     7
100
AcDbVertex
100
AcDb2dVertex
 10
156.335898
 20
99.520477
 30
0.0
  0
VERTEX
  5
B7
100
AcDbEntity
  8
0
 62
     7
100
AcDbVertex
100
AcDb2dVertex
 10
156.318738
 20
99.52962
 30
0.0
  0
VERTEX
  5
B8
100
AcDbEntity
  8
0
 62
     7
100
AcDbVertex
100
AcDb2dVertex
 10
156.303719
 20
99.541933
 30
0.0
  0
VERTEX
  5
B9
100
AcDbEntity
  8
0
 62
     7
100
AcDbVertex
100
AcDb2dVertex
 10
156.291406
 20
99.556952
 30
0.0
  0
VERTEX
  5
BA
100
AcDbEntity
  8
0
 62
     7
100
AcDbVertex
100
AcDb2dVertex
 10
156.282264
 20
99.574111
 30
0.0
  0
VERTEX
  5
BB
100
AcDbEntity
  8
0
 62
     7
100
AcDbVertex
100
AcDb2dVertex
 10
156.276636
 20
99.592764
 30
0.0
  0
VERTEX
  5
BC
100
AcDbEntity
  8
0
 62
     7
100
AcDbVertex
100
AcDb2dVertex
 10
156.274737
 20
99.612205
 30
0.0
  0
SEQEND
  5
BD
100
AcDbEntity
  8
0
  0
TEXT
  5
BE
100
AcDbEntity
  8
FORMAT
 62
     7
100
AcDbText
 10
154.283782
 20
100.548675
 30
0.0
 40
0.126
  1
IDENTIFIER
  7
STYLE3
100
AcDbText
  0
TEXT
  5
BF
100
AcDbEntity
  8
FORMAT
 62
     7
100
AcDbText
 10
154.283782
 20
100.795261
 30
0.0
 40
0.126
  1
TERMINAL #1
  7
STYLE3
100
AcDbText
  0
LINE
  5
C0
100
AcDbEntity
  8
0
 62
     7
100
AcDbLine
 10
156.326329
 20
103.262104
 30
0.0
 11
156.274737
 21
103.313696
 31
0.0
  0
LINE
  5
C1
100
AcDbEntity
  8
0
 62
     7
100
AcDbLine
 10
156.373991
 20
103.412951
 30
0.0
 11
156.425584
 21
103.361358
 31
0.0
  0
POLYLINE
  5
C2
100
AcDbEntity
  8
0
 62
     7
100
AcDb2dPolyline
 66
     1
 10
0.0
 20
0.0
 30
0.0
  0
VERTEX
  5
C3
100
AcDbEntity
  8
0
 62
     7
100
AcDbVertex
100
AcDb2dVertex
 10
156.425584
 20
103.361358
 30
0.0
  0
VERTEX
  5
C4
100
AcDbEntity
  8
0
 62
     7
100
AcDbVertex
100
AcDb2dVertex
 10
156.406399
 20
103.359202
 30
0.0
  0
VERTEX
  5
C5
100
AcDbEntity
  8
0
 62
     7
100
AcDbVertex
100
AcDb2dVertex
 10
156.387937
 20
103.353384
 30
0.0
  0
VERTEX
  5
C6
100
AcDbEntity
  8
0
 62
     7
100
AcDbVertex
100
AcDb2dVertex
 10
156.370895
 20
103.344124
 30
0.0
  0
VERTEX
  5
C7
100
AcDbEntity
  8
0
 62
     7
100
AcDbVertex
100
AcDb2dVertex
 10
156.355916
 20
103.331772
 30
0.0
  0
VERTEX
  5
C8
100
AcDbEntity
  8
0
 62
     7
100
AcDbVertex
100
AcDb2dVertex
 10
156.343563
 20
103.316792
 30
0.0
  0
VERTEX
  5
C9
100
AcDbEntity
  8
0
 62
     7
100
AcDbVertex
100
AcDb2dVertex
 10
156.334303
 20
103.29975
 30
0.0
  0
VERTEX
  5
CA
100
AcDbEntity
  8
0
 62
     7
100
AcDbVertex
100
AcDb2dVertex
 10
156.328486
 20
103.281289
 30
0.0
  0
VERTEX
  5
CB
100
AcDbEntity
  8
0
 62
     7
100
AcDbVertex
100
AcDb2dVertex
 10
156.326329
 20
103.262104
 30
0.0
  0
SEQEND
  5
CC
100
AcDbEntity
  8
0
  0
POLYLINE
  5
CD
100
AcDbEntity
  8
0
 62
     7
100
AcDb2dPolyline
 66
     1
 10
0.0
 20
0.0
 30
0.0
  0
VERTEX
  5
CE
100
AcDbEntity
  8
0
 62
     7
100
AcDbVertex
100
AcDb2dVertex
 10
156.274737
 20
103.313696
 30
0.0
  0
VERTEX
  5
CF
100
AcDbEntity
  8
0
 62
     7
100
AcDbVertex
100
AcDb2dVertex
 10
156.276636
 20
103.333138
 30
0.0
  0
VERTEX
  5
D0
100
AcDbEntity
  8
0
 62
     7
100
AcDbVertex
100
AcDb2dVertex
 10
156.282264
 20
103.35179
 30
0.0
  0
VERTEX
  5
D1
100
AcDbEntity
  8
0
 62
     7
100
AcDbVertex
100
AcDb2dVertex
 10
156.291406
 20
103.368949
 30
0.0
  0
VERTEX
  5
D2
100
AcDbEntity
  8
0
 62
     7
100
AcDbVertex
100
AcDb2dVertex
 10
156.303719
 20
103.383968
 30
0.0
  0
VERTEX
  5
D3
100
AcDbEntity
  8
0
 62
     7
100
AcDbVertex
100
AcDb2dVertex
 10
156.318738
 20
103.396282
 30
0.0
  0
VERTEX
  5
D4
100
AcDbEntity
  8
0
 62
     7
100
AcDbVertex
100
AcDb2dVertex
 10
156.335898
 20
103.405424
 30
0.0
  0
VERTEX
  5
D5
100
AcDbEntity
  8
0
 62
     7
100
AcDbVertex
100
AcDb2dVertex
 10
156.35455
 20
103.411051
 30
0.0
  0
VERTEX
  5
D6
100
AcDbEntity
  8
0
 62
     7
100
AcDbVertex
100
AcDb2dVertex
 10
156.373991
 20
103.412951
 30
0.0
  0
SEQEND
  5
D7
100
AcDbEntity
  8
0
  0
ARC
  5
D8
100
AcDbEntity
  8
0
 62
     7
100
AcDbCircle
 10
161.023607
 20
95.765869
 30
0.0
 40
0.1
100
AcDbArc
 50
7.0
 51
90.0
  0
LINE
  5
D9
100
AcDbEntity
  8
DIM
 62
     7
100
AcDbLine
 10
161.17612
 20
95.635991
 30
0.0
 11
161.17612
 21
96.61108
 31
0.0
  0
SOLID
  5
DA
100
AcDbEntity
  8
DIM
 62
     7
100
AcDbTrace
 10
162.185575
 20
95.648869
 30
0.0
 11
162.252242
 21
95.648869
 31
0.0
 12
162.218909
 22
95.848869
 32
0.0
 13
162.218909
 23
95.848869
 33
0.0
  0
LINE
  5
DB
100
AcDbEntity
  8
DIM
 62
     7
100
AcDbLine
 10
160.882737
 20
94.451869
 30
0.0
 11
162.398909
 21
94.451869
 31
0.0
  0
LINE
  5
DC
100
AcDbEntity
  8
0
 62
     7
100
AcDbLine
 10
159.149904
 20
95.143603
 30
0.0
 11
158.299004
 21
95.143603
 31
0.0
  0
LINE
  5
DD
100
AcDbEntity
  8
0
 62
     7
100
AcDbLine
 10
158.299004
 20
95.143603
 30
0.0
 11
159.149904
 21
95.143603
 31
0.0
  0
LINE
  5
DE
100
AcDbEntity
  8
0
 62
     7
100
AcDbLine
 10
158.299004
 20
95.357869
 30
0.0
 11
159.149904
 21
95.357869
 31
0.0
  0
LINE
  5
DF
100
AcDbEntity
  8
0
 62
     7
100
AcDbLine
 10
158.299004
 20
95.357869
 30
0.0
 11
159.149904
 21
95.357869
 31
0.0
  0
LINE
  5
E0
100
AcDbEntity
  8
0
 62
     7
100
AcDbLine
 10
159.149904
 20
94.630869
 30
0.0
 11
158.299004
 21
94.630869
 31
0.0
  0
SOLID
  5
E1
100
AcDbEntity
  8
DIM
 62
     7
100
AcDbTrace
 10
158.956254
 20
93.235423
 30
0.0
 11
158.956254
 21
93.168756
 31
0.0
 12
159.156254
 22
93.202089
 32
0.0
 13
159.156254
 23
93.202089
 33
0.0
  0
LINE
  5
E2
100
AcDbEntity
  8
DIM
 62
     7
100
AcDbLine
 10
158.956254
 20
93.202089
 30
0.0
 11
158.756254
 21
93.202089
 31
0.0
  0
LINE
  5
E3
100
AcDbEntity
  8
0
 62
     7
100
AcDbLine
 10
157.029004
 20
95.143603
 30
0.0
 11
157.879904
 21
95.143603
 31
0.0
  0
LINE
  5
E4
100
AcDbEntity
  8
0
 62
     7
100
AcDbLine
 10
157.879904
 20
95.143603
 30
0.0
 11
157.029004
 21
95.143603
 31
0.0
  0
LINE
  5
E5
100
AcDbEntity
  8
0
 62
     7
100
AcDbLine
 10
157.029004
 20
95.357869
 30
0.0
 11
157.879904
 21
95.357869
 31
0.0
  0
LINE
  5
E6
100
AcDbEntity
  8
0
 62
     7
100
AcDbLine
 10
157.029004
 20
95.357869
 30
0.0
 11
157.879904
 21
95.357869
 31
0.0
  0
LINE
  5
E7
100
AcDbEntity
  8
0
 62
     7
100
AcDbLine
 10
157.879904
 20
94.630869
 30
0.0
 11
157.029004
 21
94.630869
 31
0.0
  0
LINE
  5
E8
100
AcDbEntity
  8
DIM
 62
     7
100
AcDbLine
 10
157.019737
 20
93.678259
 30
0.0
 11
157.889737
 21
93.678259
 31
0.0
  0
LINE
  5
E9
100
AcDbEntity
  8
0
 62
     7
100
AcDbLine
 10
159.149904
 20
94.451869
 30
0.0
 11
159.569004
 21
94.451869
 31
0.0
  0
LINE
  5
EA
100
AcDbEntity
  8
0
 62
     7
100
AcDbLine
 10
160.419904
 20
94.451869
 30
0.0
 11
160.839004
 21
94.451869
 31
0.0
  0
LINE
  5
EB
100
AcDbEntity
  8
0
 62
     7
100
AcDbLine
 10
157.879904
 20
94.451869
 30
0.0
 11
158.299004
 21
94.451869
 31
0.0
  0
LINE
  5
EC
100
AcDbEntity
  8
0
 62
     7
100
AcDbLine
 10
156.609904
 20
94.451869
 30
0.0
 11
157.029004
 21
94.451869
 31
0.0
  0
SOLID
  5
ED
100
AcDbEntity
  8
DIM
 62
     7
100
AcDbTrace
 10
157.019737
 20
93.711592
 30
0.0
 11
157.019737
 21
93.644925
 31
0.0
 12
156.819737
 22
93.678259
 32
0.0
 13
156.819737
 23
93.678259
 33
0.0
  0
LINE
  5
EE
100
AcDbEntity
  8
DIM
 62
     7
100
AcDbLine
 10
156.819737
 20
94.389369
 30
0.0
 11
156.819737
 21
93.498259
 31
0.0
  0
LINE
  5
EF
100
AcDbEntity
  8
0
 62
     7
100
AcDbLine
 10
157.029004
 20
94.69186
 30
0.0
 11
157.029004
 21
94.69186
 31
0.0
  0
LINE
  5
F0
100
AcDbEntity
  8
0
 62
     7
100
AcDbLine
 10
159.569004
 20
95.357869
 30
0.0
 11
159.569004
 21
94.451869
 31
0.0
  0
LINE
  5
F1
100
AcDbEntity
  8
0
 62
     7
100
AcDbLine
 10
160.839004
 20
95.357869
 30
0.0
 11
160.839004
 21
94.451869
 31
0.0
  0
LINE
  5
F2
100
AcDbEntity
  8
0
 62
     7
100
AcDbLine
 10
158.299004
 20
95.357869
 30
0.0
 11
158.299004
 21
94.451869
 31
0.0
  0
LINE
  5
F3
100
AcDbEntity
  8
0
 62
     7
100
AcDbLine
 10
157.029004
 20
95.357869
 30
0.0
 11
157.029004
 21
94.451869
 31
0.0
  0
LINE
  5
F4
100
AcDbEntity
  8
0
 62
     7
100
AcDbLine
 10
156.609904
 20
94.69186
 30
0.0
 11
156.609904
 21
94.69186
 31
0.0
  0
LINE
  5
F5
100
AcDbEntity
  8
0
 62
     7
100
AcDbLine
 10
159.149904
 20
95.357869
 30
0.0
 11
159.149904
 21
94.451869
 31
0.0
  0
LINE
  5
F6
100
AcDbEntity
  8
0
 62
     7
100
AcDbLine
 10
160.419904
 20
95.357869
 30
0.0
 11
160.419904
 21
94.451869
 31
0.0
  0
LINE
  5
F7
100
AcDbEntity
  8
0
 62
     7
100
AcDbLine
 10
157.879904
 20
95.357869
 30
0.0
 11
157.879904
 21
94.451869
 31
0.0
  0
LINE
  5
F8
100
AcDbEntity
  8
0
 62
     7
100
AcDbLine
 10
156.609904
 20
95.357869
 30
0.0
 11
156.609904
 21
94.451869
 31
0.0
  0
LINE
  5
F9
100
AcDbEntity
  8
0
 62
     7
100
AcDbLine
 10
159.149904
 20
95.143603
 30
0.0
 11
159.569004
 21
95.143603
 31
0.0
  0
LINE
  5
FA
100
AcDbEntity
  8
0
 62
     7
100
AcDbLine
 10
160.419904
 20
95.143603
 30
0.0
 11
160.839004
 21
95.143603
 31
0.0
  0
LINE
  5
FB
100
AcDbEntity
  8
0
 62
     7
100
AcDbLine
 10
157.879904
 20
95.143603
 30
0.0
 11
158.299004
 21
95.143603
 31
0.0
  0
LINE
  5
FC
100
AcDbEntity
  8
0
 62
     7
100
AcDbLine
 10
156.609904
 20
95.143603
 30
0.0
 11
157.029004
 21
95.143603
 31
0.0
  0
LINE
  5
FD
100
AcDbEntity
  8
0
 62
     7
100
AcDbLine
 10
159.149904
 20
94.798819
 30
0.0
 11
159.569004
 21
94.798819
 31
0.0
  0
LINE
  5
FE
100
AcDbEntity
  8
0
 62
     7
100
AcDbLine
 10
160.419904
 20
94.798819
 30
0.0
 11
160.839004
 21
94.798819
 31
0.0
  0
LINE
  5
FF
100
AcDbEntity
  8
0
 62
     7
100
AcDbLine
 10
157.879904
 20
94.798819
 30
0.0
 11
158.299004
 21
94.798819
 31
0.0
  0
LINE
  5
100
100
AcDbEntity
  8
0
 62
     7
100
AcDbLine
 10
156.609904
 20
94.798819
 30
0.0
 11
157.029004
 21
94.798819
 31
0.0
  0
LINE
  5
101
100
AcDbEntity
  8
0
 62
     7
100
AcDbLine
 10
159.149904
 20
94.69186
 30
0.0
 11
159.569004
 21
94.69186
 31
0.0
  0
LINE
  5
102
100
AcDbEntity
  8
0
 62
     7
100
AcDbLine
 10
160.419904
 20
94.69186
 30
0.0
 11
160.839004
 21
94.69186
 31
0.0
  0
LINE
  5
103
100
AcDbEntity
  8
0
 62
     7
100
AcDbLine
 10
157.879904
 20
94.69186
 30
0.0
 11
158.299004
 21
94.69186
 31
0.0
  0
LINE
  5
104
100
AcDbEntity
  8
0
 62
     7
100
AcDbLine
 10
156.609904
 20
94.69186
 30
0.0
 11
157.029004
 21
94.69186
 31
0.0
  0
LINE
  5
105
100
AcDbEntity
  8
0
 62
     7
100
AcDbLine
 10
159.149904
 20
95.357869
 30
0.0
 11
159.569004
 21
95.357869
 31
0.0
  0
LINE
  5
106
100
AcDbEntity
  8
0
 62
     7
100
AcDbLine
 10
160.419904
 20
95.357869
 30
0.0
 11
160.839004
 21
95.357869
 31
0.0
  0
LINE
  5
107
100
AcDbEntity
  8
0
 62
     7
100
AcDbLine
 10
157.879904
 20
95.357869
 30
0.0
 11
158.299004
 21
95.357869
 31
0.0
  0
LINE
  5
108
100
AcDbEntity
  8
0
 62
     7
100
AcDbLine
 10
156.609904
 20
95.357869
 30
0.0
 11
157.029004
 21
95.357869
 31
0.0
  0
LINE
  5
109
100
AcDbEntity
  8
TEXT
 62
     7
100
AcDbLine
 10
158.289737
 20
93.858259
 30
0.0
 11
158.845285
 21
93.858259
 31
0.0
  0
LINE
  5
10A
100
AcDbEntity
  8
TEXT
 62
     7
100
AcDbLine
 10
158.289737
 20
93.498259
 30
0.0
 11
158.845285
 21
93.498259
 31
0.0
  0
SOLID
  5
10B
100
AcDbEntity
  8
DIM
 62
     7
100
AcDbTrace
 10
157.889737
 20
93.711592
 30
0.0
 11
157.889737
 21
93.644925
 31
0.0
 12
158.089737
 22
93.678259
 32
0.0
 13
158.089737
 23
93.678259
 33
0.0
  0
LINE
  5
10C
100
AcDbEntity
  8
DIM
 62
     7
100
AcDbLine
 10
158.089737
 20
93.678259
 30
0.0
 11
158.289737
 21
93.678259
 31
0.0
  0
LINE
  5
10D
100
AcDbEntity
  8
DIM
 62
     7
100
AcDbLine
 10
158.089737
 20
94.389369
 30
0.0
 11
158.089737
 21
93.498259
 31
0.0
  0
LINE
  5
10E
100
AcDbEntity
  8
TEXT
 62
     7
100
AcDbLine
 10
158.289737
 20
93.498259
 30
0.0
 11
158.289737
 21
93.858259
 31
0.0
  0
TEXT
  5
10F
100
AcDbEntity
  8
FORMAT
 62
     7
100
AcDbText
 10
158.527372
 20
93.605533
 30
0.0
 40
0.126
  1
e
  7
STYLE3
 72
     1
 11
158.562022
 21
93.668533
 31
0.0
100
AcDbText
 73
     2
  0
LINE
  5
110
100
AcDbEntity
  8
TEXT
 62
     7
100
AcDbLine
 10
158.845285
 20
93.498259
 30
0.0
 11
158.845285
 21
93.858259
 31
0.0
  0
LINE
  5
111
100
AcDbEntity
  8
DIM
 62
     7
100
AcDbLine
 10
159.562654
 20
94.389369
 30
0.0
 11
159.562654
 21
93.022089
 31
0.0
  0
LINE
  5
112
100
AcDbEntity
  8
DIM
 62
     7
100
AcDbLine
 10
159.156254
 20
94.389369
 30
0.0
 11
159.156254
 21
93.022089
 31
0.0
  0
TEXT
  5
113
100
AcDbEntity
  8
FORMAT
 62
     7
100
AcDbText
 10
160.111525
 20
93.150163
 30
0.0
 40
0.126
  1
8X b
  7
STYLE2
 72
     1
 11
160.250125
 21
93.213163
 31
0.0
100
AcDbText
 73
     2
  0
SOLID
  5
114
100
AcDbEntity
  8
DIM
 62
     7
100
AcDbTrace
 10
159.762654
 20
93.235423
 30
0.0
 11
159.762654
 21
93.168756
 31
0.0
 12
159.562654
 22
93.202089
 32
0.0
 13
159.562654
 23
93.202089
 33
0.0
  0
LINE
  5
115
100
AcDbEntity
  8
DIM
 62
     7
100
AcDbLine
 10
159.762654
 20
93.202089
 30
0.0
 11
159.962654
 21
93.202089
 31
0.0
  0
LINE
  5
116
100
AcDbEntity
  8
0
 62
     7
100
AcDbLine
 10
160.419904
 20
95.143603
 30
0.0
 11
159.569004
 21
95.143603
 31
0.0
  0
LINE
  5
117
100
AcDbEntity
  8
0
 62
     7
100
AcDbLine
 10
159.569004
 20
95.143603
 30
0.0
 11
160.419904
 21
95.143603
 31
0.0
  0
LINE
  5
118
100
AcDbEntity
  8
0
 62
     7
100
AcDbLine
 10
160.419904
 20
94.630869
 30
0.0
 11
159.569004
 21
94.630869
 31
0.0
  0
LINE
  5
119
100
AcDbEntity
  8
0
 62
     7
100
AcDbLine
 10
159.569004
 20
95.357869
 30
0.0
 11
160.419904
 21
95.357869
 31
0.0
  0
LINE
  5
11A
100
AcDbEntity
  8
0
 62
     7
100
AcDbLine
 10
159.569004
 20
95.357869
 30
0.0
 11
160.419904
 21
95.357869
 31
0.0
  0
ARC
  5
11B
100
AcDbEntity
  8
0
 62
     7
100
AcDbCircle
 10
161.02373
 20
94.730869
 30
0.0
 40
0.1
100
AcDbArc
 50
270.0
 51
353.0
  0
LINE
  5
11C
100
AcDbEntity
  8
0
 62
     7
100
AcDbLine
 10
161.02373
 20
94.630869
 30
0.0
 11
160.839004
 21
94.630869
 31
0.0
  0
LINE
  5
11D
100
AcDbEntity
  8
0
 62
     7
100
AcDbLine
 10
160.839004
 20
95.143603
 30
0.0
 11
161.174454
 21
95.144147
 31
0.0
  0
LINE
  5
11E
100
AcDbEntity
  8
0
 62
     7
100
AcDbLine
 10
160.839004
 20
95.357869
 30
0.0
 11
161.074454
 21
95.357869
 31
0.0
  0
LINE
  5
11F
100
AcDbEntity
  8
0
 62
     7
100
AcDbLine
 10
160.839004
 20
95.357869
 30
0.0
 11
161.074454
 21
95.357869
 31
0.0
  0
LINE
  5
120
100
AcDbEntity
  8
0
 62
     7
100
AcDbLine
 10
161.074454
 20
95.357869
 30
0.0
 11
161.174454
 21
95.357869
 31
0.0
  0
LINE
  5
121
100
AcDbEntity
  8
0
 62
     7
100
AcDbLine
 10
161.174454
 20
95.357869
 30
0.0
 11
161.174454
 21
95.137869
 31
0.0
  0
LINE
  5
122
100
AcDbEntity
  8
0
 62
     7
100
AcDbLine
 10
161.122861
 20
95.778056
 30
0.0
 11
161.160034
 21
95.475309
 31
0.0
  0
LINE
  5
123
100
AcDbEntity
  8
0
 62
     7
100
AcDbLine
 10
161.174454
 20
95.357869
 30
0.0
 11
161.074454
 21
95.357869
 31
0.0
  0
LINE
  5
124
100
AcDbEntity
  8
0
 62
     7
100
AcDbLine
 10
161.160034
 20
95.475309
 30
0.0
 11
161.174454
 21
95.357869
 31
0.0
  0
LINE
  5
125
100
AcDbEntity
  8
0
 62
     7
100
AcDbLine
 10
161.174454
 20
95.143985
 30
0.0
 11
161.174454
 21
95.143985
 31
0.0
  0
LINE
  5
126
100
AcDbEntity
  8
0
 62
     7
100
AcDbLine
 10
161.174454
 20
95.137869
 30
0.0
 11
161.122984
 21
94.718682
 31
0.0
  0
SOLID
  5
127
100
AcDbEntity
  8
DIM
 62
     7
100
AcDbTrace
 10
162.185575
 20
94.651869
 30
0.0
 11
162.252242
 21
94.651869
 31
0.0
 12
162.218909
 22
94.451869
 32
0.0
 13
162.218909
 23
94.451869
 33
0.0
  0
TEXT
  5
128
100
AcDbEntity
  8
FORMAT
 62
     7
100
AcDbText
 10
162.184259
 20
95.087369
 30
0.0
 40
0.126
  1
A
  7
STYLE2
 72
     1
 11
162.218909
 21
95.150369
 31
0.0
100
AcDbText
 73
     2
  0
LINE
  5
129
100
AcDbEntity
  8
DIM
 62
     7
100
AcDbLine
 10
162.218909
 20
95.648869
 30
0.0
 11
162.218909
 21
95.336369
 31
0.0
  0
LINE
  5
12A
100
AcDbEntity
  8
DIM
 62
     7
100
AcDbLine
 10
162.218909
 20
94.651869
 30
0.0
 11
162.218909
 21
94.964369
 31
0.0
  0
ARC
  5
12B
100
AcDbEntity
  8
DIM
 62
     7
100
AcDbCircle
 10
166.193567
 20
94.80546
 30
0.0
 40
0.92681
100
AcDbArc
 50
152.223606
 51
164.611803
  0
SOLID
  5
12C
100
AcDbEntity
  8
DIM
 62
     7
100
AcDbTrace
 10
165.267078
 20
95.056722
 30
0.0
 11
165.332888
 21
95.04607
 31
0.0
 12
165.268027
 22
94.853966
 32
0.0
 13
165.268027
 23
94.853966
 33
0.0
  0
SOLID
  5
12D
100
AcDbEntity
  8
DIM
 62
     7
100
AcDbTrace
 10
165.326854
 20
94.205642
 30
0.0
 11
165.260577
 21
94.198449
 31
0.0
 12
165.272136
 22
94.400878
 32
0.0
 13
165.272136
 23
94.400878
 33
0.0
  0
ARC
  5
12E
100
AcDbEntity
  8
DIM
 62
     7
100
AcDbCircle
 10
166.198946
 20
94.400878
 30
0.0
 40
0.92681
100
AcDbArc
 50
192.388197
 51
204.776394
  0
LINE
  5
12F
100
AcDbEntity
  8
DIM
 62
     7
100
AcDbLine
 10
165.118027
 20
94.392823
 30
0.0
 11
166.173027
 21
94.448092
 31
0.0
  0
TEXT
  5
130
100
AcDbEntity
  8
FORMAT
 62
     7
100
AcDbText
 10
165.240832
 20
94.564414
 30
0.0
 40
0.126
  1
t
  7
STYLE2
 72
     1
 11
165.275482
 21
94.627414
 31
0.0
100
AcDbText
 73
     2
  0
LINE
  5
131
100
AcDbEntity
  8
0
 62
     7
100
AcDbLine
 10
166.249408
 20
94.671767
 30
0.0
 11
166.260922
 21
94.452069
 31
0.0
  0
LINE
  5
132
100
AcDbEntity
  8
DIM
 62
     7
100
AcDbLine
 10
161.23862
 20
103.406051
 30
0.0
 11
162.593253
 21
103.406051
 31
0.0
  0
LINE
  5
133
100
AcDbEntity
  8
DIM
 62
     7
100
AcDbLine
 10
161.23862
 20
99.519851
 30
0.0
 11
162.593253
 21
99.519851
 31
0.0
  0
LINE
  5
134
100
AcDbEntity
  8
DIM
 62
     7
100
AcDbLine
 10
160.882737
 20
104.444557
 30
0.0
 11
163.834422
 21
104.444557
 31
0.0
  0
LINE
  5
135
100
AcDbEntity
  8
DIM
 62
     7
100
AcDbLine
 10
160.882737
 20
98.481344
 30
0.0
 11
163.834422
 21
98.481344
 31
0.0
  0
LINE
  5
136
100
AcDbEntity
  8
DIM
 62
     7
100
AcDbLine
 10
161.206377
 20
95.848869
 30
0.0
 11
162.398909
 21
95.848869
 31
0.0
  0
CIRCLE
  5
137
100
AcDbEntity
  8
0
 62
     7
100
AcDbCircle
 10
156.819737
 20
100.412951
 30
0.0
 40
0.125
  0
LINE
  5
138
100
AcDbEntity
  8
0
 62
     7
100
AcDbLine
 10
161.174737
 20
103.313696
 30
0.0
 11
161.174737
 21
99.612205
 31
0.0
  0
LINE
  5
139
100
AcDbEntity
  8
0
 62
     7
100
AcDbLine
 10
161.123144
 20
103.262104
 30
0.0
 11
161.123144
 21
99.929372
 31
0.0
  0
LINE
  5
13A
100
AcDbEntity
  8
TEXT
 62
     7
100
AcDbLine
 10
157.417656
 20
96.713791
 30
0.0
 11
157.417656
 21
97.073791
 31
0.0
  0
LINE
  5
13B
100
AcDbEntity
  8
TEXT
 62
     7
100
AcDbLine
 10
157.057656
 20
96.713791
 30
0.0
 11
157.057656
 21
97.073791
 31
0.0
  0
LINE
  5
13C
100
AcDbEntity
  8
DIM
 62
     7
100
AcDbLine
 10
157.289713
 20
96.43108
 30
0.0
 11
157.185599
 21
96.43108
 31
0.0
  0
LINE
  5
13D
100
AcDbEntity
  8
DIM
 62
     7
100
AcDbLine
 10
157.185599
 20
96.43108
 30
0.0
 11
157.289713
 21
96.43108
 31
0.0
  0
LINE
  5
13E
100
AcDbEntity
  8
DIM
 62
     7
100
AcDbLine
 10
157.289713
 20
96.43108
 30
0.0
 11
157.237656
 21
96.521246
 31
0.0
  0
LINE
  5
13F
100
AcDbEntity
  8
DIM
 62
     7
100
AcDbLine
 10
157.237656
 20
96.521246
 30
0.0
 11
157.185599
 21
96.43108
 31
0.0
  0
LINE
  5
140
100
AcDbEntity
  8
DIM
 62
     7
100
AcDbLine
 10
157.185599
 20
96.43108
 30
0.0
 11
157.237656
 21
96.521246
 31
0.0
  0
TEXT
  5
141
100
AcDbEntity
  8
TEXT
 62
     7
100
AcDbText
 10
157.190771
 20
96.804616
 30
0.0
 40
0.18
  1
A
  7
STYLE3
 72
     1
 11
157.240271
 21
96.894616
 31
0.0
100
AcDbText
 73
     2
  0
LINE
  5
142
100
AcDbEntity
  8
TEXT
 62
     7
100
AcDbLine
 10
157.057656
 20
96.713791
 30
0.0
 11
157.417656
 21
96.713791
 31
0.0
  0
LINE
  5
143
100
AcDbEntity
  8
DIM
 62
     7
100
AcDbLine
 10
157.289713
 20
96.43108
 30
0.0
 11
157.237656
 21
96.521246
 31
0.0
  0
LINE
  5
144
100
AcDbEntity
  8
DIM
 62
     7
100
AcDbLine
 10
157.237656
 20
96.521246
 30
0.0
 11
157.237656
 21
96.713791
 31
0.0
  0
LINE
  5
145
100
AcDbEntity
  8
TEXT
 62
     7
100
AcDbLine
 10
157.057656
 20
97.073791
 30
0.0
 11
157.417656
 21
97.073791
 31
0.0
  0
TEXT
  5
146
100
AcDbEntity
  8
FORMAT
 62
     7
100
AcDbText
 10
158.347489
 20
96.36808
 30
0.0
 40
0.126
  1
D
  7
STYLE2
 72
     1
 11
158.382139
 21
96.43108
 31
0.0
100
AcDbText
 73
     2
  0
TEXT
  5
147
100
AcDbEntity
  8
FORMAT
 62
     7
100
AcDbText
 10
158.9011
 20
96.368178
 30
0.0
 40
0.126
  1
4    
  7
STYLE2
100
AcDbText
  0
LINE
  5
148
100
AcDbEntity
  8
0
 62
     7
100
AcDbLine
 10
156.373991
 20
99.512951
 30
0.0
 11
161.075482
 21
99.512951
 31
0.0
  0
LINE
  5
149
100
AcDbEntity
  8
0
 62
     7
100
AcDbLine
 10
157.029287
 20
99.290922
 30
0.0
 11
157.029287
 21
99.512951
 31
0.0
  0
LINE
  5
14A
100
AcDbEntity
  8
0
 62
     7
100
AcDbLine
 10
156.610187
 20
99.512951
 30
0.0
 11
156.610187
 21
99.290922
 31
0.0
  0
LINE
  5
14B
100
AcDbEntity
  8
0
 62
     7
100
AcDbLine
 10
157.029287
 20
99.040049
 30
0.0
 11
157.029287
 21
98.98544
 31
0.0
  0
LINE
  5
14C
100
AcDbEntity
  8
0
 62
     7
100
AcDbLine
 10
157.029287
 20
99.290922
 30
0.0
 11
157.029287
 21
99.040049
 31
0.0
  0
LINE
  5
14D
100
AcDbEntity
  8
0
 62
     7
100
AcDbLine
 10
157.029287
 20
98.866651
 30
0.0
 11
157.029287
 21
98.479437
 31
0.0
  0
LINE
  5
14E
100
AcDbEntity
  8
0
 62
     7
100
AcDbLine
 10
157.029287
 20
98.98544
 30
0.0
 11
157.029287
 21
98.866651
 31
0.0
  0
LINE
  5
14F
100
AcDbEntity
  8
0
 62
     7
100
AcDbLine
 10
156.610187
 20
99.040049
 30
0.0
 11
156.610187
 21
98.98544
 31
0.0
  0
LINE
  5
150
100
AcDbEntity
  8
0
 62
     7
100
AcDbLine
 10
156.610187
 20
99.290922
 30
0.0
 11
156.610187
 21
99.040049
 31
0.0
  0
LINE
  5
151
100
AcDbEntity
  8
0
 62
     7
100
AcDbLine
 10
156.610187
 20
98.866651
 30
0.0
 11
156.610187
 21
98.479437
 31
0.0
  0
LINE
  5
152
100
AcDbEntity
  8
0
 62
     7
100
AcDbLine
 10
156.610187
 20
98.98544
 30
0.0
 11
156.610187
 21
98.866651
 31
0.0
  0
LINE
  5
153
100
AcDbEntity
  8
0
 62
     7
100
AcDbLine
 10
156.610187
 20
98.866651
 30
0.0
 11
157.029287
 21
98.866651
 31
0.0
  0
LINE
  5
154
100
AcDbEntity
  8
0
 62
     7
100
AcDbLine
 10
156.610187
 20
98.98544
 30
0.0
 11
157.029287
 21
98.98544
 31
0.0
  0
LINE
  5
155
100
AcDbEntity
  8
0
 62
     7
100
AcDbLine
 10
156.610187
 20
99.040049
 30
0.0
 11
157.029287
 21
99.040049
 31
0.0
  0
LINE
  5
156
100
AcDbEntity
  8
0
 62
     7
100
AcDbLine
 10
156.610187
 20
99.290922
 30
0.0
 11
157.029287
 21
99.290922
 31
0.0
  0
LINE
  5
157
100
AcDbEntity
  8
0
 62
     7
100
AcDbLine
 10
156.610187
 20
98.479437
 30
0.0
 11
157.029287
 21
98.479437
 31
0.0
  0
TEXT
  5
158
100
AcDbEntity
  8
FORMAT
 62
     7
100
AcDbText
 10
156.761883
 20
98.561031
 30
0.0
 40
0.24379
  1
1
  7
STYLE2
100
AcDbText
  0
LINE
  5
159
100
AcDbEntity
  8
0
 62
     7
100
AcDbLine
 10
158.299287
 20
99.290922
 30
0.0
 11
158.299287
 21
99.512951
 31
0.0
  0
LINE
  5
15A
100
AcDbEntity
  8
0
 62
     7
100
AcDbLine
 10
157.880187
 20
99.512951
 30
0.0
 11
157.880187
 21
99.290922
 31
0.0
  0
LINE
  5
15B
100
AcDbEntity
  8
0
 62
     7
100
AcDbLine
 10
158.299287
 20
99.040049
 30
0.0
 11
158.299287
 21
98.98544
 31
0.0
  0
LINE
  5
15C
100
AcDbEntity
  8
0
 62
     7
100
AcDbLine
 10
158.299287
 20
99.290922
 30
0.0
 11
158.299287
 21
99.040049
 31
0.0
  0
LINE
  5
15D
100
AcDbEntity
  8
0
 62
     7
100
AcDbLine
 10
158.299287
 20
98.866651
 30
0.0
 11
158.299287
 21
98.479437
 31
0.0
  0
LINE
  5
15E
100
AcDbEntity
  8
0
 62
     7
100
AcDbLine
 10
158.299287
 20
98.98544
 30
0.0
 11
158.299287
 21
98.866651
 31
0.0
  0
LINE
  5
15F
100
AcDbEntity
  8
0
 62
     7
100
AcDbLine
 10
157.880187
 20
98.98544
 30
0.0
 11
157.880187
 21
99.040049
 31
0.0
  0
LINE
  5
160
100
AcDbEntity
  8
0
 62
     7
100
AcDbLine
 10
157.880187
 20
99.040049
 30
0.0
 11
157.880187
 21
99.290922
 31
0.0
  0
LINE
  5
161
100
AcDbEntity
  8
0
 62
     7
100
AcDbLine
 10
157.880187
 20
98.479437
 30
0.0
 11
157.880187
 21
98.866651
 31
0.0
  0
LINE
  5
162
100
AcDbEntity
  8
0
 62
     7
100
AcDbLine
 10
157.880187
 20
98.866651
 30
0.0
 11
157.880187
 21
98.98544
 31
0.0
  0
LINE
  5
163
100
AcDbEntity
  8
0
 62
     7
100
AcDbLine
 10
157.880187
 20
98.866651
 30
0.0
 11
158.299287
 21
98.866651
 31
0.0
  0
LINE
  5
164
100
AcDbEntity
  8
0
 62
     7
100
AcDbLine
 10
157.880187
 20
98.98544
 30
0.0
 11
158.299287
 21
98.98544
 31
0.0
  0
LINE
  5
165
100
AcDbEntity
  8
0
 62
     7
100
AcDbLine
 10
157.880187
 20
99.040049
 30
0.0
 11
158.299287
 21
99.040049
 31
0.0
  0
LINE
  5
166
100
AcDbEntity
  8
0
 62
     7
100
AcDbLine
 10
157.880187
 20
99.290922
 30
0.0
 11
158.299287
 21
99.290922
 31
0.0
  0
LINE
  5
167
100
AcDbEntity
  8
0
 62
     7
100
AcDbLine
 10
157.880187
 20
98.479437
 30
0.0
 11
158.299287
 21
98.479437
 31
0.0
  0
TEXT
  5
168
100
AcDbEntity
  8
FORMAT
 62
     7
100
AcDbText
 10
157.993578
 20
98.561031
 30
0.0
 40
0.24379
  1
2
  7
STYLE2
100
AcDbText
  0
LINE
  5
169
100
AcDbEntity
  8
DIM
 62
     7
100
AcDbLine
 10
160.97612
 20
96.43108
 30
0.0
 11
159.233946
 21
96.43108
 31
0.0
  0
SOLID
  5
16A
100
AcDbEntity
  8
DIM
 62
     7
100
AcDbTrace
 10
160.97612
 20
96.464413
 30
0.0
 11
160.97612
 21
96.397747
 31
0.0
 12
161.17612
 22
96.43108
 32
0.0
 13
161.17612
 23
96.43108
 33
0.0
  0
LINE
  5
16B
100
AcDbEntity
  8
0
 62
     7
100
AcDbLine
 10
159.569287
 20
99.290922
 30
0.0
 11
159.569287
 21
99.512951
 31
0.0
  0
LINE
  5
16C
100
AcDbEntity
  8
0
 62
     7
100
AcDbLine
 10
159.150187
 20
99.512951
 30
0.0
 11
159.150187
 21
99.290922
 31
0.0
  0
LINE
  5
16D
100
AcDbEntity
  8
0
 62
     7
100
AcDbLine
 10
159.150187
 20
98.98544
 30
0.0
 11
159.569287
 21
98.98544
 31
0.0
  0
LINE
  5
16E
100
AcDbEntity
  8
0
 62
     7
100
AcDbLine
 10
159.150187
 20
99.040049
 30
0.0
 11
159.569287
 21
99.040049
 31
0.0
  0
LINE
  5
16F
100
AcDbEntity
  8
0
 62
     7
100
AcDbLine
 10
159.150187
 20
99.290922
 30
0.0
 11
159.569287
 21
99.290922
 31
0.0
  0
LINE
  5
170
100
AcDbEntity
  8
0
 62
     7
100
AcDbLine
 10
159.569287
 20
99.040049
 30
0.0
 11
159.569287
 21
98.98544
 31
0.0
  0
LINE
  5
171
100
AcDbEntity
  8
0
 62
     7
100
AcDbLine
 10
159.150187
 20
98.98544
 30
0.0
 11
159.150187
 21
99.040049
 31
0.0
  0
LINE
  5
172
100
AcDbEntity
  8
0
 62
     7
100
AcDbLine
 10
159.569287
 20
99.290922
 30
0.0
 11
159.569287
 21
99.040049
 31
0.0
  0
LINE
  5
173
100
AcDbEntity
  8
0
 62
     7
100
AcDbLine
 10
159.150187
 20
99.040049
 30
0.0
 11
159.150187
 21
99.290922
 31
0.0
  0
LINE
  5
174
100
AcDbEntity
  8
0
 62
     7
100
AcDbLine
 10
159.150187
 20
98.866651
 30
0.0
 11
159.569287
 21
98.866651
 31
0.0
  0
LINE
  5
175
100
AcDbEntity
  8
0
 62
     7
100
AcDbLine
 10
159.569287
 20
98.866651
 30
0.0
 11
159.569287
 21
98.479437
 31
0.0
  0
LINE
  5
176
100
AcDbEntity
  8
0
 62
     7
100
AcDbLine
 10
159.150187
 20
98.479437
 30
0.0
 11
159.150187
 21
98.866651
 31
0.0
  0
LINE
  5
177
100
AcDbEntity
  8
0
 62
     7
100
AcDbLine
 10
159.150187
 20
98.479437
 30
0.0
 11
159.569287
 21
98.479437
 31
0.0
  0
LINE
  5
178
100
AcDbEntity
  8
0
 62
     7
100
AcDbLine
 10
159.569287
 20
98.98544
 30
0.0
 11
159.569287
 21
98.866651
 31
0.0
  0
LINE
  5
179
100
AcDbEntity
  8
0
 62
     7
100
AcDbLine
 10
159.150187
 20
98.866651
 30
0.0
 11
159.150187
 21
98.98544
 31
0.0
  0
TEXT
  5
17A
100
AcDbEntity
  8
FORMAT
 62
     7
100
AcDbText
 10
159.263578
 20
98.561031
 30
0.0
 40
0.24379
  1
3
  7
STYLE2
100
AcDbText
  0
LINE
  5
17B
100
AcDbEntity
  8
0
 62
     7
100
AcDbLine
 10
160.839287
 20
99.512951
 30
0.0
 11
160.839287
 21
99.290922
 31
0.0
  0
LINE
  5
17C
100
AcDbEntity
  8
0
 62
     7
100
AcDbLine
 10
160.420187
 20
99.512951
 30
0.0
 11
160.420187
 21
99.290922
 31
0.0
  0
LINE
  5
17D
100
AcDbEntity
  8
0
 62
     7
100
AcDbLine
 10
160.839287
 20
99.040049
 30
0.0
 11
160.839287
 21
98.98544
 31
0.0
  0
LINE
  5
17E
100
AcDbEntity
  8
0
 62
     7
100
AcDbLine
 10
160.839287
 20
99.290922
 30
0.0
 11
160.839287
 21
99.040049
 31
0.0
  0
LINE
  5
17F
100
AcDbEntity
  8
0
 62
     7
100
AcDbLine
 10
160.420187
 20
98.98544
 30
0.0
 11
160.420187
 21
99.040049
 31
0.0
  0
LINE
  5
180
100
AcDbEntity
  8
0
 62
     7
100
AcDbLine
 10
160.420187
 20
99.040049
 30
0.0
 11
160.420187
 21
99.290922
 31
0.0
  0
LINE
  5
181
100
AcDbEntity
  8
0
 62
     7
100
AcDbLine
 10
160.420187
 20
98.98544
 30
0.0
 11
160.839287
 21
98.98544
 31
0.0
  0
LINE
  5
182
100
AcDbEntity
  8
0
 62
     7
100
AcDbLine
 10
160.420187
 20
99.040049
 30
0.0
 11
160.839287
 21
99.040049
 31
0.0
  0
LINE
  5
183
100
AcDbEntity
  8
0
 62
     7
100
AcDbLine
 10
160.420187
 20
99.290922
 30
0.0
 11
160.839287
 21
99.290922
 31
0.0
  0
LINE
  5
184
100
AcDbEntity
  8
0
 62
     7
100
AcDbLine
 10
160.839287
 20
98.866651
 30
0.0
 11
160.839287
 21
98.479437
 31
0.0
  0
LINE
  5
185
100
AcDbEntity
  8
0
 62
     7
100
AcDbLine
 10
160.420187
 20
98.479437
 30
0.0
 11
160.420187
 21
98.866651
 31
0.0
  0
LINE
  5
186
100
AcDbEntity
  8
0
 62
     7
100
AcDbLine
 10
160.420187
 20
98.866651
 30
0.0
 11
160.839287
 21
98.866651
 31
0.0
  0
LINE
  5
187
100
AcDbEntity
  8
0
 62
     7
100
AcDbLine
 10
160.420187
 20
98.479437
 30
0.0
 11
160.839287
 21
98.479437
 31
0.0
  0
LINE
  5
188
100
AcDbEntity
  8
0
 62
     7
100
AcDbLine
 10
160.839287
 20
98.98544
 30
0.0
 11
160.839287
 21
98.866651
 31
0.0
  0
LINE
  5
189
100
AcDbEntity
  8
0
 62
     7
100
AcDbLine
 10
160.420187
 20
98.866651
 30
0.0
 11
160.420187
 21
98.98544
 31
0.0
  0
TEXT
  5
18A
100
AcDbEntity
  8
FORMAT
 62
     7
100
AcDbText
 10
160.533578
 20
98.561031
 30
0.0
 40
0.24379
  1
4    
  7
STYLE2
100
AcDbText
  0
LINE
  5
18B
100
AcDbEntity
  8
0
 62
     7
100
AcDbLine
 10
161.061062
 20
99.52737
 30
0.0
 11
161.061062
 21
99.52737
 31
0.0
  0
LINE
  5
18C
100
AcDbEntity
  8
0
 62
     7
100
AcDbLine
 10
161.123144
 20
99.929372
 30
0.0
 11
161.166848
 21
99.573432
 31
0.0
  0
LINE
  5
18D
100
AcDbEntity
  8
0
 62
     7
100
AcDbLine
 10
161.064567
 20
99.52737
 30
0.0
 11
161.02389
 21
99.858661
 31
0.0
  0
POLYLINE
  5
18E
100
AcDbEntity
  8
0
 62
     7
100
AcDb2dPolyline
 66
     1
 10
0.0
 20
0.0
 30
0.0
  0
VERTEX
  5
18F
100
AcDbEntity
  8
0
 62
     7
100
AcDbVertex
100
AcDb2dVertex
 10
161.02389
 20
99.858661
 30
0.0
  0
VERTEX
  5
190
100
AcDbEntity
  8
0
 62
     7
100
AcDbVertex
100
AcDb2dVertex
 10
161.042271
 20
99.861004
 30
0.0
  0
VERTEX
  5
191
100
AcDbEntity
  8
0
 62
     7
100
AcDbVertex
100
AcDb2dVertex
 10
161.060021
 20
99.865694
 30
0.0
  0
VERTEX
  5
192
100
AcDbEntity
  8
0
 62
     7
100
AcDbVertex
100
AcDb2dVertex
 10
161.07653
 20
99.87257
 30
0.0
  0
VERTEX
  5
193
100
AcDbEntity
  8
0
 62
     7
100
AcDbVertex
100
AcDb2dVertex
 10
161.091232
 20
99.881396
 30
0.0
  0
VERTEX
  5
194
100
AcDbEntity
  8
0
 62
     7
100
AcDbVertex
100
AcDb2dVertex
 10
161.103621
 20
99.89187
 30
0.0
  0
VERTEX
  5
195
100
AcDbEntity
  8
0
 62
     7
100
AcDbVertex
100
AcDb2dVertex
 10
161.113273
 20
99.903632
 30
0.0
  0
VERTEX
  5
196
100
AcDbEntity
  8
0
 62
     7
100
AcDbVertex
100
AcDb2dVertex
 10
161.119856
 20
99.916277
 30
0.0
  0
VERTEX
  5
197
100
AcDbEntity
  8
0
 62
     7
100
AcDbVertex
100
AcDb2dVertex
 10
161.123144
 20
99.929372
 30
0.0
  0
SEQEND
  5
198
100
AcDbEntity
  8
0
  0
POLYLINE
  5
199
100
AcDbEntity
  8
0
 62
     7
100
AcDb2dPolyline
 66
     1
 10
0.0
 20
0.0
 30
0.0
  0
VERTEX
  5
19A
100
AcDbEntity
  8
0
 62
     7
100
AcDbVertex
100
AcDb2dVertex
 10
161.174737
 20
99.612205
 30
0.0
  0
VERTEX
  5
19B
100
AcDbEntity
  8
0
 62
     7
100
AcDbVertex
100
AcDb2dVertex
 10
161.172837
 20
99.592764
 30
0.0
  0
VERTEX
  5
19C
100
AcDbEntity
  8
0
 62
     7
100
AcDbVertex
100
AcDb2dVertex
 10
161.16721
 20
99.574111
 30
0.0
  0
VERTEX
  5
19D
100
AcDbEntity
  8
0
 62
     7
100
AcDbVertex
100
AcDb2dVertex
 10
161.158068
 20
99.556952
 30
0.0
  0
VERTEX
  5
19E
100
AcDbEntity
  8
0
 62
     7
100
AcDbVertex
100
AcDb2dVertex
 10
161.145755
 20
99.541933
 30
0.0
  0
VERTEX
  5
19F
100
AcDbEntity
  8
0
 62
     7
100
AcDbVertex
100
AcDb2dVertex
 10
161.130735
 20
99.52962
 30
0.0
  0
VERTEX
  5
1A0
100
AcDbEntity
  8
0
 62
     7
100
AcDbVertex
100
AcDb2dVertex
 10
161.113576
 20
99.520477
 30
0.0
  0
VERTEX
  5
1A1
100
AcDbEntity
  8
0
 62
     7
100
AcDbVertex
100
AcDb2dVertex
 10
161.094924
 20
99.51485
 30
0.0
  0
VERTEX
  5
1A2
100
AcDbEntity
  8
0
 62
     7
100
AcDbVertex
100
AcDb2dVertex
 10
161.075482
 20
99.512951
 30
0.0
  0
SEQEND
  5
1A3
100
AcDbEntity
  8
0
  0
LINE
  5
1A4
100
AcDbEntity
  8
0
 62
     7
100
AcDbLine
 10
158.299287
 20
103.412951
 30
0.0
 11
158.299287
 21
104.446465
 31
0.0
  0
LINE
  5
1A5
100
AcDbEntity
  8
0
 62
     7
100
AcDbLine
 10
159.569287
 20
103.412951
 30
0.0
 11
159.569287
 21
104.446465
 31
0.0
  0
LINE
  5
1A6
100
AcDbEntity
  8
0
 62
     7
100
AcDbLine
 10
160.839287
 20
103.412951
 30
0.0
 11
160.839287
 21
104.446465
 31
0.0
  0
LINE
  5
1A7
100
AcDbEntity
  8
0
 62
     7
100
AcDbLine
 10
157.029287
 20
103.412951
 30
0.0
 11
157.029287
 21
104.446465
 31
0.0
  0
LINE
  5
1A8
100
AcDbEntity
  8
0
 62
     7
100
AcDbLine
 10
157.880187
 20
103.412951
 30
0.0
 11
157.880187
 21
104.446465
 31
0.0
  0
LINE
  5
1A9
100
AcDbEntity
  8
0
 62
     7
100
AcDbLine
 10
159.150187
 20
103.412951
 30
0.0
 11
159.150187
 21
104.446465
 31
0.0
  0
LINE
  5
1AA
100
AcDbEntity
  8
0
 62
     7
100
AcDbLine
 10
160.420187
 20
103.412951
 30
0.0
 11
160.420187
 21
104.446465
 31
0.0
  0
LINE
  5
1AB
100
AcDbEntity
  8
0
 62
     7
100
AcDbLine
 10
156.610187
 20
103.412951
 30
0.0
 11
156.610187
 21
104.446465
 31
0.0
  0
LINE
  5
1AC
100
AcDbEntity
  8
0
 62
     7
100
AcDbLine
 10
157.880187
 20
104.446465
 30
0.0
 11
158.299287
 21
104.446465
 31
0.0
  0
LINE
  5
1AD
100
AcDbEntity
  8
0
 62
     7
100
AcDbLine
 10
159.150187
 20
104.446465
 30
0.0
 11
159.569287
 21
104.446465
 31
0.0
  0
LINE
  5
1AE
100
AcDbEntity
  8
0
 62
     7
100
AcDbLine
 10
160.420187
 20
104.446465
 30
0.0
 11
160.839287
 21
104.446465
 31
0.0
  0
LINE
  5
1AF
100
AcDbEntity
  8
0
 62
     7
100
AcDbLine
 10
156.610187
 20
104.446465
 30
0.0
 11
157.029287
 21
104.446465
 31
0.0
  0
TEXT
  5
1B0
100
AcDbEntity
  8
FORMAT
 62
     7
100
AcDbText
 10
156.723578
 20
104.137338
 30
0.0
 40
0.24379
  1
8
  7
STYLE2
100
AcDbText
  0
TEXT
  5
1B1
100
AcDbEntity
  8
FORMAT
 62
     7
100
AcDbText
 10
157.993578
 20
104.137338
 30
0.0
 40
0.24379
  1
7
  7
STYLE2
100
AcDbText
  0
TEXT
  5
1B2
100
AcDbEntity
  8
FORMAT
 62
     7
100
AcDbText
 10
159.263578
 20
104.137338
 30
0.0
 40
0.24379
  1
6
  7
STYLE2
100
AcDbText
  0
LINE
  5
1B3
100
AcDbEntity
  8
0
 62
     7
100
AcDbLine
 10
161.174737
 20
103.313696
 30
0.0
 11
161.123144
 21
103.262104
 31
0.0
  0
LINE
  5
1B4
100
AcDbEntity
  8
0
 62
     7
100
AcDbLine
 10
161.02389
 20
103.361358
 30
0.0
 11
161.075482
 21
103.412951
 31
0.0
  0
POLYLINE
  5
1B5
100
AcDbEntity
  8
0
 62
     7
100
AcDb2dPolyline
 66
     1
 10
0.0
 20
0.0
 30
0.0
  0
VERTEX
  5
1B6
100
AcDbEntity
  8
0
 62
     7
100
AcDbVertex
100
AcDb2dVertex
 10
161.02389
 20
103.361358
 30
0.0
  0
VERTEX
  5
1B7
100
AcDbEntity
  8
0
 62
     7
100
AcDbVertex
100
AcDb2dVertex
 10
161.043075
 20
103.359202
 30
0.0
  0
VERTEX
  5
1B8
100
AcDbEntity
  8
0
 62
     7
100
AcDbVertex
100
AcDb2dVertex
 10
161.061536
 20
103.353384
 30
0.0
  0
VERTEX
  5
1B9
100
AcDbEntity
  8
0
 62
     7
100
AcDbVertex
100
AcDb2dVertex
 10
161.078578
 20
103.344124
 30
0.0
  0
VERTEX
  5
1BA
100
AcDbEntity
  8
0
 62
     7
100
AcDbVertex
100
AcDb2dVertex
 10
161.093558
 20
103.331772
 30
0.0
  0
VERTEX
  5
1BB
100
AcDbEntity
  8
0
 62
     7
100
AcDbVertex
100
AcDb2dVertex
 10
161.105911
 20
103.316792
 30
0.0
  0
VERTEX
  5
1BC
100
AcDbEntity
  8
0
 62
     7
100
AcDbVertex
100
AcDb2dVertex
 10
161.11517
 20
103.29975
 30
0.0
  0
VERTEX
  5
1BD
100
AcDbEntity
  8
0
 62
     7
100
AcDbVertex
100
AcDb2dVertex
 10
161.120988
 20
103.281289
 30
0.0
  0
VERTEX
  5
1BE
100
AcDbEntity
  8
0
 62
     7
100
AcDbVertex
100
AcDb2dVertex
 10
161.123144
 20
103.262104
 30
0.0
  0
SEQEND
  5
1BF
100
AcDbEntity
  8
0
  0
POLYLINE
  5
1C0
100
AcDbEntity
  8
0
 62
     7
100
AcDb2dPolyline
 66
     1
 10
0.0
 20
0.0
 30
0.0
  0
VERTEX
  5
1C1
100
AcDbEntity
  8
0
 62
     7
100
AcDbVertex
100
AcDb2dVertex
 10
161.075482
 20
103.412951
 30
0.0
  0
VERTEX
  5
1C2
100
AcDbEntity
  8
0
 62
     7
100
AcDbVertex
100
AcDb2dVertex
 10
161.094924
 20
103.411051
 30
0.0
  0
VERTEX
  5
1C3
100
AcDbEntity
  8
0
 62
     7
100
AcDbVertex
100
AcDb2dVertex
 10
161.113576
 20
103.405424
 30
0.0
  0
VERTEX
  5
1C4
100
AcDbEntity
  8
0
 62
     7
100
AcDbVertex
100
AcDb2dVertex
 10
161.130735
 20
103.396282
 30
0.0
  0
VERTEX
  5
1C5
100
AcDbEntity
  8
0
 62
     7
100
AcDbVertex
100
AcDb2dVertex
 10
161.145755
 20
103.383968
 30
0.0
  0
VERTEX
  5
1C6
100
AcDbEntity
  8
0
 62
     7
100
AcDbVertex
100
AcDb2dVertex
 10
161.158068
 20
103.368949
 30
0.0
  0
VERTEX
  5
1C7
100
AcDbEntity
  8
0
 62
     7
100
AcDbVertex
100
AcDb2dVertex
 10
161.16721
 20
103.35179
 30
0.0
  0
VERTEX
  5
1C8
100
AcDbEntity
  8
0
 62
     7
100
AcDbVertex
100
AcDb2dVertex
 10
161.172837
 20
103.333138
 30
0.0
  0
VERTEX
  5
1C9
100
AcDbEntity
  8
0
 62
     7
100
AcDbVertex
100
AcDb2dVertex
 10
161.174737
 20
103.313696
 30
0.0
  0
SEQEND
  5
1CA
100
AcDbEntity
  8
0
  0
TEXT
  5
1CB
100
AcDbEntity
  8
FORMAT
 62
     7
100
AcDbText
 10
160.533578
 20
104.137338
 30
0.0
 40
0.24379
  1
5
  7
STYLE2
100
AcDbText
  0
LINE
  5
1CC
100
AcDbEntity
  8
TEXT
 62
     7
100
AcDbLine
 10
163.046177
 20
100.756615
 30
0.0
 11
163.046177
 21
100.396615
 31
0.0
  0
LINE
  5
1CD
100
AcDbEntity
  8
TEXT
 62
     7
100
AcDbLine
 10
162.686177
 20
100.756615
 30
0.0
 11
162.686177
 21
100.396615
 31
0.0
  0
TEXT
  5
1CE
100
AcDbEntity
  8
TEXT
 62
     7
100
AcDbText
 10
162.819292
 20
100.487441
 30
0.0
 40
0.18
  1
B
  7
STYLE3
 72
     1
 11
162.868792
 21
100.577441
 31
0.0
100
AcDbText
 73
     2
  0
LINE
  5
1CF
100
AcDbEntity
  8
DIM
 62
     7
100
AcDbLine
 10
162.413253
 20
99.719851
 30
0.0
 11
162.413253
 21
101.276951
 31
0.0
  0
LINE
  5
1D0
100
AcDbEntity
  8
DIM
 62
     7
100
AcDbLine
 10
163.654422
 20
98.681344
 30
0.0
 11
163.654422
 21
101.841724
 31
0.0
  0
LINE
  5
1D1
100
AcDbEntity
  8
TEXT
 62
     7
100
AcDbLine
 10
162.686177
 20
100.396615
 30
0.0
 11
163.046177
 21
100.396615
 31
0.0
  0
SOLID
  5
1D2
100
AcDbEntity
  8
DIM
 62
     7
100
AcDbTrace
 10
162.37992
 20
99.719851
 30
0.0
 11
162.446587
 21
99.719851
 31
0.0
 12
162.413253
 22
99.519851
 32
0.0
 13
162.413253
 23
99.519851
 33
0.0
  0
SOLID
  5
1D3
100
AcDbEntity
  8
DIM
 62
     7
100
AcDbTrace
 10
163.621089
 20
98.681344
 30
0.0
 11
163.687755
 21
98.681344
 31
0.0
 12
163.654422
 22
98.481344
 32
0.0
 13
163.654422
 23
98.481344
 33
0.0
  0
TEXT
  5
1D4
100
AcDbEntity
  8
FORMAT
 62
     7
100
AcDbText
 10
165.284671
 20
96.792438
 30
0.0
 40
0.126
  1
h x 45%%D
  7
STYLE2
 72
     2
 11
165.769771
 21
96.855438
 31
0.0
100
AcDbText
 73
     2
  0
TEXT
  5
1D5
100
AcDbEntity
  8
FORMAT
 62
     7
100
AcDbText
 10
164.868871
 20
96.603438
 30
0.0
 40
0.126
  1
INDEX CHAMFER
  7
STYLE2
 72
     2
 11
165.769771
 21
96.666438
 31
0.0
100
AcDbText
 73
     2
  0
LINE
  5
1D6
100
AcDbEntity
  8
DIM
 62
     7
100
AcDbLine
 10
162.413253
 20
103.206051
 30
0.0
 11
162.413253
 21
101.648951
 31
0.0
  0
LINE
  5
1D7
100
AcDbEntity
  8
DIM
 62
     7
100
AcDbLine
 10
163.654422
 20
104.244557
 30
0.0
 11
163.654422
 21
102.213724
 31
0.0
  0
LINE
  5
1D8
100
AcDbEntity
  8
TEXT
 62
     7
100
AcDbLine
 10
162.686177
 20
100.756615
 30
0.0
 11
163.046177
 21
100.756615
 31
0.0
  0
LINE
  5
1D9
100
AcDbEntity
  8
DIM
 62
     7
100
AcDbLine
 10
162.403466
 20
100.524558
 30
0.0
 11
162.403466
 21
100.628673
 31
0.0
  0
LINE
  5
1DA
100
AcDbEntity
  8
DIM
 62
     7
100
AcDbLine
 10
162.403466
 20
100.628673
 30
0.0
 11
162.493632
 21
100.576615
 31
0.0
  0
LINE
  5
1DB
100
AcDbEntity
  8
DIM
 62
     7
100
AcDbLine
 10
162.403466
 20
100.524558
 30
0.0
 11
162.493632
 21
100.576615
 31
0.0
  0
LINE
  5
1DC
100
AcDbEntity
  8
DIM
 62
     7
100
AcDbLine
 10
162.493632
 20
100.576615
 30
0.0
 11
162.686177
 21
100.576615
 31
0.0
  0
LINE
  5
1DD
100
AcDbEntity
  8
DIM
 62
     7
100
AcDbLine
 10
162.403466
 20
100.628673
 30
0.0
 11
162.403466
 21
100.524558
 31
0.0
  0
LINE
  5
1DE
100
AcDbEntity
  8
DIM
 62
     7
100
AcDbLine
 10
162.403466
 20
100.524558
 30
0.0
 11
162.493632
 21
100.576615
 31
0.0
  0
LINE
  5
1DF
100
AcDbEntity
  8
DIM
 62
     7
100
AcDbLine
 10
162.493632
 20
100.576615
 30
0.0
 11
162.403466
 21
100.628673
 31
0.0
  0
TEXT
  5
1E0
100
AcDbEntity
  8
FORMAT
 62
     7
100
AcDbText
 10
162.378603
 20
101.399951
 30
0.0
 40
0.126
  1
E
  7
STYLE2
 72
     1
 11
162.413253
 21
101.462951
 31
0.0
100
AcDbText
 73
     2
  0
TEXT
  5
1E1
100
AcDbEntity
  8
FORMAT
 62
     7
100
AcDbText
 10
162.855966
 20
101.315436
 30
0.0
 40
0.126
  1
7
  7
STYLE2
100
AcDbText
  0
TEXT
  5
1E2
100
AcDbEntity
  8
FORMAT
 62
     7
100
AcDbText
 10
163.619772
 20
101.964724
 30
0.0
 40
0.126
  1
H
  7
STYLE2
 72
     1
 11
163.654422
 21
102.027724
 31
0.0
100
AcDbText
 73
     2
  0
SOLID
  5
1E3
100
AcDbEntity
  8
DIM
 62
     7
100
AcDbTrace
 10
162.37992
 20
103.206051
 30
0.0
 11
162.446587
 21
103.206051
 31
0.0
 12
162.413253
 22
103.406051
 32
0.0
 13
162.413253
 23
103.406051
 33
0.0
  0
SOLID
  5
1E4
100
AcDbEntity
  8
DIM
 62
     7
100
AcDbTrace
 10
163.621089
 20
104.244557
 30
0.0
 11
163.687755
 21
104.244557
 31
0.0
 12
163.654422
 22
104.444557
 32
0.0
 13
163.654422
 23
104.444557
 33
0.0
  0
ARC
  5
1E5
100
AcDbEntity
  8
0
 62
     7
100
AcDbCircle
 10
171.032075
 20
95.766069
 30
0.0
 40
0.1
100
AcDbArc
 50
7.0
 51
90.0
  0
LINE
  5
1E6
100
AcDbEntity
  8
0
 62
     7
100
AcDbLine
 10
167.325886
 20
95.534033
 30
0.0
 11
167.628633
 21
95.83678
 31
0.0
  0
SOLID
  5
1E7
100
AcDbEntity
  8
DIM
 62
     7
100
AcDbTrace
 10
171.684193
 20
93.472349
 30
0.0
 11
171.680704
 21
93.405774
 31
0.0
 12
171.482723
 22
93.449529
 32
0.0
 13
171.482723
 23
93.449529
 33
0.0
  0
ARC
  5
1E8
100
AcDbEntity
  8
0
 62
     7
100
AcDbCircle
 10
171.404951
 20
95.104069
 30
0.0
 40
0.254
100
AcDbArc
 50
9.0
 51
90.0
  0
ARC
  5
1E9
100
AcDbEntity
  8
0
 62
     7
100
AcDbCircle
 10
171.755795
 20
94.729955
 30
0.0
 40
0.254
100
AcDbArc
 50
189.0
 51
267.0
  0
LINE
  5
1EA
100
AcDbEntity
  8
0
 62
     7
100
AcDbLine
 10
167.282922
 20
95.144185
 30
0.0
 11
169.080522
 21
95.144185
 31
0.0
  0
LINE
  5
1EB
100
AcDbEntity
  8
0
 62
     7
100
AcDbLine
 10
169.385322
 20
95.358069
 30
0.0
 11
171.182922
 21
95.358069
 31
0.0
  0
LINE
  5
1EC
100
AcDbEntity
  8
0
 62
     7
100
AcDbLine
 10
167.282922
 20
95.358069
 30
0.0
 11
169.080522
 21
95.358069
 31
0.0
  0
LINE
  5
1ED
100
AcDbEntity
  8
0
 62
     7
100
AcDbLine
 10
171.032198
 20
94.631069
 30
0.0
 11
167.433646
 21
94.631069
 31
0.0
  0
ARC
  5
1EE
100
AcDbEntity
  8
0
 62
     7
100
AcDbCircle
 10
166.710049
 20
94.729955
 30
0.0
 40
0.254
100
AcDbArc
 50
273.0
 51
351.0
  0
ARC
  5
1EF
100
AcDbEntity
  8
0
 62
     7
100
AcDbCircle
 10
167.433646
 20
94.731069
 30
0.0
 40
0.1
100
AcDbArc
 50
187.0
 51
270.0
  0
LINE
  5
1F0
100
AcDbEntity
  8
0
 62
     7
100
AcDbLine
 10
167.282922
 20
95.358069
 30
0.0
 11
167.060893
 21
95.358069
 31
0.0
  0
ARC
  5
1F1
100
AcDbEntity
  8
0
 62
     7
100
AcDbCircle
 10
167.140322
 20
95.011069
 30
0.0
 40
0.127
100
AcDbArc
 50
90.0
 51
171.0
  0
ARC
  5
1F2
100
AcDbEntity
  8
0
 62
     7
100
AcDbCircle
 10
167.060893
 20
95.104069
 30
0.0
 40
0.254
100
AcDbArc
 50
90.0
 51
171.0
  0
LINE
  5
1F3
100
AcDbEntity
  8
0
 62
     7
100
AcDbLine
 10
166.960922
 20
94.690221
 30
0.0
 11
167.014886
 21
95.030936
 31
0.0
  0
LINE
  5
1F4
100
AcDbEntity
  8
0
 62
     7
100
AcDbLine
 10
166.81002
 20
95.143803
 30
0.0
 11
166.755412
 21
94.799019
 31
0.0
  0
ARC
  5
1F5
100
AcDbEntity
  8
0
 62
     7
100
AcDbCircle
 10
166.629975
 20
94.818886
 30
0.0
 40
0.127
100
AcDbArc
 50
273.0
 51
351.0
  0
LINE
  5
1F6
100
AcDbEntity
  8
0
 62
     7
100
AcDbLine
 10
167.282922
 20
95.358069
 30
0.0
 11
167.297342
 21
95.475509
 31
0.0
  0
ARC
  5
1F7
100
AcDbEntity
  8
0
 62
     7
100
AcDbCircle
 10
167.396596
 20
95.463322
 30
0.0
 40
0.1
100
AcDbArc
 50
135.0
 51
173.0
  0
LINE
  5
1F8
100
AcDbEntity
  8
0
 62
     7
100
AcDbLine
 10
167.282922
 20
95.138069
 30
0.0
 11
167.282922
 21
95.358069
 31
0.0
  0
LINE
  5
1F9
100
AcDbEntity
  8
0
 62
     7
100
AcDbLine
 10
167.334392
 20
94.718882
 30
0.0
 11
167.282922
 21
95.138069
 31
0.0
  0
LINE
  5
1FA
100
AcDbEntity
  8
DIM
 62
     7
100
AcDbLine
 10
171.533827
 20
94.424654
 30
0.0
 11
171.473303
 21
93.269775
 31
0.0
  0
LINE
  5
1FB
100
AcDbEntity
  8
0
 62
     7
100
AcDbLine
 10
169.385322
 20
95.144185
 30
0.0
 11
171.182922
 21
95.144185
 31
0.0
  0
LINE
  5
1FC
100
AcDbEntity
  8
0
 62
     7
100
AcDbLine
 10
169.080522
 20
95.138069
 30
0.0
 11
169.080522
 21
95.358069
 31
0.0
  0
LINE
  5
1FD
100
AcDbEntity
  8
0
 62
     7
100
AcDbLine
 10
169.385322
 20
95.358069
 30
0.0
 11
169.385322
 21
95.138069
 31
0.0
  0
LINE
  5
1FE
100
AcDbEntity
  8
0
 62
     7
100
AcDbLine
 10
169.080522
 20
95.138069
 30
0.0
 11
169.385322
 21
95.138069
 31
0.0
  0
LINE
  5
1FF
100
AcDbEntity
  8
0
 62
     7
100
AcDbLine
 10
169.080522
 20
95.358069
 30
0.0
 11
169.385322
 21
95.358069
 31
0.0
  0
LINE
  5
200
100
AcDbEntity
  8
0
 62
     7
100
AcDbLine
 10
169.080522
 20
95.144185
 30
0.0
 11
169.080522
 21
95.138069
 31
0.0
  0
LINE
  5
201
100
AcDbEntity
  8
0
 62
     7
100
AcDbLine
 10
169.385322
 20
95.138069
 30
0.0
 11
169.385322
 21
95.144185
 31
0.0
  0
LINE
  5
202
100
AcDbEntity
  8
0
 62
     7
100
AcDbLine
 10
169.385322
 20
95.358069
 30
0.0
 11
169.385322
 21
95.144185
 31
0.0
  0
LINE
  5
203
100
AcDbEntity
  8
0
 62
     7
100
AcDbLine
 10
169.080522
 20
95.144185
 30
0.0
 11
169.080522
 21
95.358069
 31
0.0
  0
ARC
  5
204
100
AcDbEntity
  8
0
 62
     7
100
AcDbCircle
 10
171.032198
 20
94.731069
 30
0.0
 40
0.1
100
AcDbArc
 50
270.0
 51
353.0
  0
ARC
  5
205
100
AcDbEntity
  8
0
 62
     7
100
AcDbCircle
 10
171.325521
 20
95.011069
 30
0.0
 40
0.127
100
AcDbArc
 50
9.0
 51
90.0
  0
LINE
  5
206
100
AcDbEntity
  8
0
 62
     7
100
AcDbLine
 10
171.504922
 20
94.690221
 30
0.0
 11
171.450958
 21
95.030936
 31
0.0
  0
LINE
  5
207
100
AcDbEntity
  8
0
 62
     7
100
AcDbLine
 10
171.131329
 20
95.778256
 30
0.0
 11
171.182922
 21
95.358069
 31
0.0
  0
LINE
  5
208
100
AcDbEntity
  8
0
 62
     7
100
AcDbLine
 10
171.182922
 20
95.358069
 30
0.0
 11
171.182922
 21
95.138069
 31
0.0
  0
LINE
  5
209
100
AcDbEntity
  8
0
 62
     7
100
AcDbLine
 10
171.182922
 20
95.138069
 30
0.0
 11
171.131452
 21
94.718882
 31
0.0
  0
LINE
  5
20A
100
AcDbEntity
  8
0
 62
     7
100
AcDbLine
 10
171.182922
 20
95.358069
 30
0.0
 11
171.404951
 21
95.358069
 31
0.0
  0
LINE
  5
20B
100
AcDbEntity
  8
DIM
 62
     7
100
AcDbLine
 10
172.201651
 20
94.389655
 30
0.0
 11
172.141126
 21
93.234776
 31
0.0
  0
LINE
  5
20C
100
AcDbEntity
  8
DIM
 62
     7
100
AcDbLine
 10
172.150547
 20
93.414529
 30
0.0
 11
172.350273
 21
93.404062
 31
0.0
  0
SOLID
  5
20D
100
AcDbEntity
  8
DIM
 62
     7
100
AcDbTrace
 10
171.952565
 20
93.458284
 30
0.0
 11
171.949076
 21
93.391709
 31
0.0
 12
172.150547
 22
93.414529
 32
0.0
 13
172.150547
 23
93.414529
 33
0.0
  0
LINE
  5
20E
100
AcDbEntity
  8
DIM
 62
     7
100
AcDbLine
 10
171.682449
 20
93.439061
 30
0.0
 11
171.950821
 21
93.424997
 31
0.0
  0
TEXT
  5
20F
100
AcDbEntity
  8
0
 62
     7
100
AcDbText
 10
172.441623
 20
93.341062
 30
0.0
 40
0.126
  1
L
  7
STYLE2
 72
     1
 11
172.476273
 21
93.404062
 31
0.0
100
AcDbText
 73
     2
  0
TEXT
  5
210
100
AcDbEntity
  8
FORMAT
 62
     7
100
AcDbText
 10
172.537018
 20
92.941368
 30
0.0
 40
0.126
  1
6
  7
STYLE2
100
AcDbText
  0
LINE
  5
211
100
AcDbEntity
  8
DIM
 62
     7
100
AcDbLine
 10
173.393844
 20
94.594021
 30
0.0
 11
172.41762
 21
94.645183
 31
0.0
  0
LINE
  5
212
100
AcDbEntity
  8
DIM
 62
     7
100
AcDbLine
 10
173.396502
 20
94.390718
 30
0.0
 11
172.407002
 21
94.442576
 31
0.0
  0
LINE
  5
213
100
AcDbEntity
  8
0
 62
     7
100
AcDbLine
 10
172.216436
 20
94.671767
 30
0.0
 11
172.204922
 21
94.452069
 31
0.0
  0
LINE
  5
214
100
AcDbEntity
  8
0
 62
     7
100
AcDbLine
 10
172.204922
 20
94.452069
 30
0.0
 11
171.742501
 21
94.476303
 31
0.0
  0
TEXT
  5
215
100
AcDbEntity
  8
FORMAT
 62
     7
100
AcDbText
 10
172.729439
 20
93.967675
 30
0.0
 40
0.126
  1
C
  7
STYLE2
 72
     1
 11
172.764089
 21
94.030675
 31
0.0
100
AcDbText
 73
     2
  0
LINE
  5
216
100
AcDbEntity
  8
0
 62
     7
100
AcDbLine
 10
171.829222
 20
94.69206
 30
0.0
 11
172.216436
 21
94.671767
 31
0.0
  0
ARC
  5
217
100
AcDbEntity
  8
0
 62
     7
100
AcDbCircle
 10
171.835869
 20
94.818886
 30
0.0
 40
0.127
100
AcDbArc
 50
189.0
 51
267.0
  0
LINE
  5
218
100
AcDbEntity
  8
0
 62
     7
100
AcDbLine
 10
171.655824
 20
95.143803
 30
0.0
 11
171.710432
 21
94.799019
 31
0.0
  0
SOLID
  5
219
100
AcDbEntity
  8
DIM
 62
     7
100
AcDbTrace
 10
173.180358
 20
94.806186
 30
0.0
 11
173.246837
 21
94.801196
 31
0.0
 12
173.198629
 22
94.604252
 32
0.0
 13
173.198629
 23
94.604252
 33
0.0
  0
LINE
  5
21A
100
AcDbEntity
  8
DIM
 62
     7
100
AcDbLine
 10
173.198629
 20
94.604252
 30
0.0
 11
173.217603
 21
94.966301
 31
0.0
  0
LINE
  5
21B
100
AcDbEntity
  8
DIM
 62
     7
100
AcDbLine
 10
173.169036
 20
94.039596
 30
0.0
 11
172.970774
 21
94.039596
 31
0.0
  0
SOLID
  5
21C
100
AcDbEntity
  8
DIM
 62
     7
100
AcDbTrace
 10
173.206282
 20
94.199711
 30
0.0
 11
173.139802
 21
94.2047
 31
0.0
 12
173.188011
 22
94.401645
 32
0.0
 13
173.188011
 23
94.401645
 33
0.0
  0
LINE
  5
21D
100
AcDbEntity
  8
DIM
 62
     7
100
AcDbLine
 10
173.188011
 20
94.401645
 30
0.0
 11
173.169036
 21
94.039596
 31
0.0
  0
LINE
  5
21E
100
AcDbEntity
  8
0
 62
     7
100
AcDbLine
 10
167.699343
 20
95.866069
 30
0.0
 11
171.032075
 21
95.866069
 31
0.0
  0
ARC
  5
21F
100
AcDbEntity
  8
0
 62
     7
100
AcDbCircle
 10
167.699343
 20
95.766069
 30
0.0
 40
0.1
100
AcDbArc
 50
90.0
 51
135.0
  0
TEXT
  5
220
100
AcDbEntity
  8
TEXT
 62
     7
100
AcDbText
 10
165.421369
 20
92.681457
 30
0.0
 40
0.126
  1
SYMBOL
  7
STYLE3
 72
     1
 11
165.629269
 21
92.744457
 31
0.0
100
AcDbText
 73
     2
  0
LINE
  5
221
100
AcDbEntity
  8
TEXT
 62
     7
100
AcDbLine
 10
170.42419
 20
93.267954
 30
0.0
 11
165.125877
 21
93.267954
 31
0.0
  0
LINE
  5
222
100
AcDbEntity
  8
TEXT
 62
     7
100
AcDbLine
 10
170.42419
 20
92.267954
 30
0.0
 11
165.125877
 21
92.267954
 31
0.0
  0
LINE
  5
223
100
AcDbEntity
  8
TEXT
 62
     7
100
AcDbLine
 10
165.125877
 20
91.917954
 30
0.0
 11
170.425877
 21
91.917954
 31
0.0
  0
LINE
  5
224
100
AcDbEntity
  8
TEXT
 62
     7
100
AcDbLine
 10
165.125877
 20
91.567954
 30
0.0
 11
170.425877
 21
91.567954
 31
0.0
  0
LINE
  5
225
100
AcDbEntity
  8
TEXT
 62
     7
100
AcDbLine
 10
165.125877
 20
91.214954
 30
0.0
 11
170.425877
 21
91.214954
 31
0.0
  0
LINE
  5
226
100
AcDbEntity
  8
TEXT
 62
     7
100
AcDbLine
 10
165.125877
 20
90.864954
 30
0.0
 11
170.425877
 21
90.864954
 31
0.0
  0
LINE
  5
227
100
AcDbEntity
  8
TEXT
 62
     7
100
AcDbLine
 10
165.125877
 20
90.514954
 30
0.0
 11
170.425877
 21
90.514954
 31
0.0
  0
LINE
  5
228
100
AcDbEntity
  8
TEXT
 62
     7
100
AcDbLine
 10
165.125877
 20
90.164954
 30
0.0
 11
170.425877
 21
90.164954
 31
0.0
  0
LINE
  5
229
100
AcDbEntity
  8
TEXT
 62
     7
100
AcDbLine
 10
165.125877
 20
89.814954
 30
0.0
 11
170.425877
 21
89.814954
 31
0.0
  0
LINE
  5
22A
100
AcDbEntity
  8
TEXT
 62
     7
100
AcDbLine
 10
165.125877
 20
89.464954
 30
0.0
 11
170.425877
 21
89.464954
 31
0.0
  0
LINE
  5
22B
100
AcDbEntity
  8
TEXT
 62
     7
100
AcDbLine
 10
165.125877
 20
89.114954
 30
0.0
 11
170.425877
 21
89.114954
 31
0.0
  0
LINE
  5
22C
100
AcDbEntity
  8
TEXT
 62
     7
100
AcDbLine
 10
165.125877
 20
88.764954
 30
0.0
 11
170.425877
 21
88.764954
 31
0.0
  0
LINE
  5
22D
100
AcDbEntity
  8
TEXT
 62
     7
100
AcDbLine
 10
165.125877
 20
88.414954
 30
0.0
 11
170.425877
 21
88.414954
 31
0.0
  0
LINE
  5
22E
100
AcDbEntity
  8
TEXT
 62
     7
100
AcDbLine
 10
165.125877
 20
93.267954
 30
0.0
 11
165.125877
 21
88.414954
 31
0.0
  0
TEXT
  5
22F
100
AcDbEntity
  8
TEXT
 62
     7
100
AcDbText
 10
165.574326
 20
88.525569
 30
0.0
 40
0.126
  1
t
  7
STYLE3
 72
     1
 11
165.608976
 21
88.588569
 31
0.0
100
AcDbText
 73
     2
  0
TEXT
  5
230
100
AcDbEntity
  8
TEXT
 62
     7
100
AcDbText
 10
165.574326
 20
89.575569
 30
0.0
 40
0.126
  1
H
  7
STYLE3
 72
     1
 11
165.608976
 21
89.638569
 31
0.0
100
AcDbText
 73
     2
  0
TEXT
  5
231
100
AcDbEntity
  8
TEXT
 62
     7
100
AcDbText
 10
165.574326
 20
89.225569
 30
0.0
 40
0.126
  1
h
  7
STYLE3
 72
     1
 11
165.608976
 21
89.288569
 31
0.0
100
AcDbText
 73
     2
  0
TEXT
  5
232
100
AcDbEntity
  8
TEXT
 62
     7
100
AcDbText
 10
165.574326
 20
88.875569
 30
0.0
 40
0.126
  1
L
  7
STYLE3
 72
     1
 11
165.608976
 21
88.938569
 31
0.0
100
AcDbText
 73
     2
  0
TEXT
  5
233
100
AcDbEntity
  8
TEXT
 62
     7
100
AcDbText
 10
165.574326
 20
90.625569
 30
0.0
 40
0.126
  1
D
  7
STYLE3
 72
     1
 11
165.608976
 21
90.688569
 31
0.0
100
AcDbText
 73
     2
  0
TEXT
  5
234
100
AcDbEntity
  8
TEXT
 62
     7
100
AcDbText
 10
165.574326
 20
90.275569
 30
0.0
 40
0.126
  1
E
  7
STYLE3
 72
     1
 11
165.608976
 21
90.338569
 31
0.0
100
AcDbText
 73
     2
  0
TEXT
  5
235
100
AcDbEntity
  8
TEXT
 62
     7
100
AcDbText
 10
165.574326
 20
89.925569
 30
0.0
 40
0.126
  1
e
  7
STYLE3
 72
     1
 11
165.608976
 21
89.988569
 31
0.0
100
AcDbText
 73
     2
  0
TEXT
  5
236
100
AcDbEntity
  8
TEXT
 62
     7
100
AcDbText
 10
165.574326
 20
92.008982
 30
0.0
 40
0.126
  1
A
  7
STYLE3
 72
     1
 11
165.608976
 21
92.071982
 31
0.0
100
AcDbText
 73
     2
  0
TEXT
  5
237
100
AcDbEntity
  8
TEXT
 62
     7
100
AcDbText
 10
164.762957
 20
92.047283
 30
0.0
 40
0.126
  1
5
  7
STYLE3
 72
     1
 11
164.797607
 21
92.110283
 31
0.0
100
AcDbText
 73
     2
  0
TEXT
  5
238
100
AcDbEntity
  8
TEXT
 62
     7
100
AcDbText
 10
165.539676
 20
91.678569
 30
0.0
 40
0.126
  1
A1
  7
STYLE3
 72
     1
 11
165.608976
 21
91.741569
 31
0.0
100
AcDbText
 73
     2
  0
TEXT
  5
239
100
AcDbEntity
  8
TEXT
 62
     7
100
AcDbText
 10
165.574326
 20
91.328569
 30
0.0
 40
0.126
  1
b
  7
STYLE3
 72
     1
 11
165.608976
 21
91.391569
 31
0.0
100
AcDbText
 73
     2
  0
TEXT
  5
23A
100
AcDbEntity
  8
TEXT
 62
     7
100
AcDbText
 10
165.574326
 20
90.975569
 30
0.0
 40
0.126
  1
C
  7
STYLE3
 72
     1
 11
165.608976
 21
91.038569
 31
0.0
100
AcDbText
 73
     2
  0
LINE
  5
23B
100
AcDbEntity
  8
TEXT
 62
     7
100
AcDbLine
 10
166.099037
 20
93.267954
 30
0.0
 11
166.099037
 21
88.414954
 31
0.0
  0
LINE
  5
23C
100
AcDbEntity
  8
TEXT
 62
     7
100
AcDbLine
 10
168.333699
 20
93.267954
 30
0.0
 11
168.333699
 21
88.414954
 31
0.0
  0
LINE
  5
23D
100
AcDbEntity
  8
TEXT
 62
     7
100
AcDbLine
 10
170.425877
 20
93.267954
 30
0.0
 11
170.425877
 21
88.414954
 31
0.0
  0
TEXT
  5
23E
100
AcDbEntity
  8
TEXT
 62
     7
100
AcDbText
 10
167.613338
 20
88.525569
 30
0.0
 40
0.126
  1
8`8
  7
STYLE3
 72
     1
 11
167.717288
 21
88.588569
 31
0.0
100
AcDbText
 73
     2
  0
TEXT
  5
23F
100
AcDbEntity
  8
TEXT
 62
     7
100
AcDbText
 10
166.56684
 20
88.525569
 30
0.0
 40
0.126
  1
0
  7
STYLE3
 72
     1
 11
166.60149
 21
88.588569
 31
0.0
100
AcDbText
 73
     2
  0
LINE
  5
240
100
AcDbEntity
  8
TEXT
 62
     7
100
AcDbLine
 10
167.135271
 20
89.814954
 30
0.0
 11
167.135271
 21
88.414954
 31
0.0
  0
TEXT
  5
241
100
AcDbEntity
  8
TEXT
 62
     7
100
AcDbText
 10
166.85439
 20
89.925569
 30
0.0
 40
0.126
  1
1.27 BSC
  7
STYLE3
 72
     1
 11
167.13159
 21
89.988569
 31
0.0
100
AcDbText
 73
     2
  0
TEXT
  5
242
100
AcDbEntity
  8
TEXT
 62
     7
100
AcDbText
 10
166.46289
 20
89.575569
 30
0.0
 40
0.126
  1
5.80
  7
STYLE3
 72
     1
 11
166.60149
 21
89.638569
 31
0.0
100
AcDbText
 73
     2
  0
TEXT
  5
243
100
AcDbEntity
  8
TEXT
 62
     7
100
AcDbText
 10
166.49754
 20
89.225569
 30
0.0
 40
0.126
  1
.25
  7
STYLE3
 72
     1
 11
166.60149
 21
89.288569
 31
0.0
100
AcDbText
 73
     2
  0
TEXT
  5
244
100
AcDbEntity
  8
TEXT
 62
     7
100
AcDbText
 10
166.49754
 20
88.875569
 30
0.0
 40
0.126
  1
.40
  7
STYLE3
 72
     1
 11
166.60149
 21
88.938569
 31
0.0
100
AcDbText
 73
     2
  0
TEXT
  5
245
100
AcDbEntity
  8
TEXT
 62
     7
100
AcDbText
 10
166.46289
 20
90.625569
 30
0.0
 40
0.126
  1
4.80
  7
STYLE3
 72
     1
 11
166.60149
 21
90.688569
 31
0.0
100
AcDbText
 73
     2
  0
TEXT
  5
246
100
AcDbEntity
  8
TEXT
 62
     7
100
AcDbText
 10
166.46289
 20
90.275569
 30
0.0
 40
0.126
  1
3.80
  7
STYLE3
 72
     1
 11
166.60149
 21
90.338569
 31
0.0
100
AcDbText
 73
     2
  0
TEXT
  5
247
100
AcDbEntity
  8
TEXT
 62
     7
100
AcDbText
 10
167.578688
 20
89.575569
 30
0.0
 40
0.126
  1
6.20
  7
STYLE3
 72
     1
 11
167.717288
 21
89.638569
 31
0.0
100
AcDbText
 73
     2
  0
TEXT
  5
248
100
AcDbEntity
  8
TEXT
 62
     7
100
AcDbText
 10
167.613338
 20
89.225569
 30
0.0
 40
0.126
  1
.50
  7
STYLE3
 72
     1
 11
167.717288
 21
89.288569
 31
0.0
100
AcDbText
 73
     2
  0
TEXT
  5
249
100
AcDbEntity
  8
TEXT
 62
     7
100
AcDbText
 10
167.578688
 20
88.875569
 30
0.0
 40
0.126
  1
1.27
  7
STYLE3
 72
     1
 11
167.717288
 21
88.938569
 31
0.0
100
AcDbText
 73
     2
  0
TEXT
  5
24A
100
AcDbEntity
  8
TEXT
 62
     7
100
AcDbText
 10
167.578688
 20
90.625569
 30
0.0
 40
0.126
  1
5.00
  7
STYLE3
 72
     1
 11
167.717288
 21
90.688569
 31
0.0
100
AcDbText
 73
     2
  0
TEXT
  5
24B
100
AcDbEntity
  8
TEXT
 62
     7
100
AcDbText
 10
167.578688
 20
90.275569
 30
0.0
 40
0.126
  1
4.00
  7
STYLE3
 72
     1
 11
167.717288
 21
90.338569
 31
0.0
100
AcDbText
 73
     2
  0
LINE
  5
24C
100
AcDbEntity
  8
TEXT
 62
     7
100
AcDbLine
 10
167.135271
 20
90.864954
 30
0.0
 11
167.135271
 21
90.164954
 31
0.0
  0
TEXT
  5
24D
100
AcDbEntity
  8
TEXT
 62
     7
100
AcDbText
 10
169.868427
 20
88.525569
 30
0.0
 40
0.126
  1
8`8
  7
STYLE3
 72
     1
 11
169.972377
 21
88.588569
 31
0.0
100
AcDbText
 73
     2
  0
TEXT
  5
24E
100
AcDbEntity
  8
TEXT
 62
     7
100
AcDbText
 10
168.822626
 20
88.525569
 30
0.0
 40
0.126
  1
0
  7
STYLE3
 72
     1
 11
168.857276
 21
88.588569
 31
0.0
100
AcDbText
 73
     2
  0
LINE
  5
24F
100
AcDbEntity
  8
TEXT
 62
     7
100
AcDbLine
 10
169.433009
 20
89.814954
 30
0.0
 11
169.433009
 21
88.414954
 31
0.0
  0
TEXT
  5
250
100
AcDbEntity
  8
TEXT
 62
     7
100
AcDbText
 10
169.156763
 20
89.925569
 30
0.0
 40
0.126
  1
.050 BSC
  7
STYLE3
 72
     1
 11
169.433963
 21
89.988569
 31
0.0
100
AcDbText
 73
     2
  0
TEXT
  5
251
100
AcDbEntity
  8
TEXT
 62
     7
100
AcDbText
 10
168.718676
 20
89.575569
 30
0.0
 40
0.126
  1
.228
  7
STYLE3
 72
     1
 11
168.857276
 21
89.638569
 31
0.0
100
AcDbText
 73
     2
  0
TEXT
  5
252
100
AcDbEntity
  8
TEXT
 62
     7
100
AcDbText
 10
168.753326
 20
89.225569
 30
0.0
 40
0.126
  1
.01
  7
STYLE3
 72
     1
 11
168.857276
 21
89.288569
 31
0.0
100
AcDbText
 73
     2
  0
TEXT
  5
253
100
AcDbEntity
  8
TEXT
 62
     7
100
AcDbText
 10
168.718676
 20
88.875569
 30
0.0
 40
0.126
  1
.016
  7
STYLE3
 72
     1
 11
168.857276
 21
88.938569
 31
0.0
100
AcDbText
 73
     2
  0
TEXT
  5
254
100
AcDbEntity
  8
TEXT
 62
     7
100
AcDbText
 10
168.718676
 20
90.625569
 30
0.0
 40
0.126
  1
.189
  7
STYLE3
 72
     1
 11
168.857276
 21
90.688569
 31
0.0
100
AcDbText
 73
     2
  0
TEXT
  5
255
100
AcDbEntity
  8
TEXT
 62
     7
100
AcDbText
 10
168.718676
 20
90.275569
 30
0.0
 40
0.126
  1
.150
  7
STYLE3
 72
     1
 11
168.857276
 21
90.338569
 31
0.0
100
AcDbText
 73
     2
  0
LINE
  5
256
100
AcDbEntity
  8
TEXT
 62
     7
100
AcDbLine
 10
169.433009
 20
90.864954
 30
0.0
 11
169.433009
 21
90.164954
 31
0.0
  0
TEXT
  5
257
100
AcDbEntity
  8
TEXT
 62
     7
100
AcDbText
 10
169.833777
 20
89.575569
 30
0.0
 40
0.126
  1
.244
  7
STYLE3
 72
     1
 11
169.972377
 21
89.638569
 31
0.0
100
AcDbText
 73
     2
  0
TEXT
  5
258
100
AcDbEntity
  8
TEXT
 62
     7
100
AcDbText
 10
169.833777
 20
88.875569
 30
0.0
 40
0.126
  1
.050
  7
STYLE3
 72
     1
 11
169.972377
 21
88.938569
 31
0.0
100
AcDbText
 73
     2
  0
TEXT
  5
259
100
AcDbEntity
  8
TEXT
 62
     7
100
AcDbText
 10
169.868427
 20
89.225569
 30
0.0
 40
0.126
  1
.02
  7
STYLE3
 72
     1
 11
169.972377
 21
89.288569
 31
0.0
100
AcDbText
 73
     2
  0
TEXT
  5
25A
100
AcDbEntity
  8
TEXT
 62
     7
100
AcDbText
 10
169.833777
 20
90.625569
 30
0.0
 40
0.126
  1
.197
  7
STYLE3
 72
     1
 11
169.972377
 21
90.688569
 31
0.0
100
AcDbText
 73
     2
  0
TEXT
  5
25B
100
AcDbEntity
  8
TEXT
 62
     7
100
AcDbText
 10
169.833777
 20
90.275569
 30
0.0
 40
0.126
  1
.157
  7
STYLE3
 72
     1
 11
169.972377
 21
90.338569
 31
0.0
100
AcDbText
 73
     2
  0
LINE
  5
25C
100
AcDbEntity
  8
TEXT
 62
     7
100
AcDbLine
 10
170.42419
 20
92.767954
 30
0.0
 11
166.099037
 21
92.767954
 31
0.0
  0
TEXT
  5
25D
100
AcDbEntity
  8
TEXT
 62
     7
100
AcDbText
 10
166.81745
 20
92.944097
 30
0.0
 40
0.126
  1
MILLIMETERS
  7
STYLE3
 72
     1
 11
167.1986
 21
93.007097
 31
0.0
100
AcDbText
 73
     2
  0
TEXT
  5
25E
100
AcDbEntity
  8
TEXT
 62
     7
100
AcDbText
 10
166.7135
 20
92.472267
 30
0.0
 40
0.126
  1
MIN.      MAX.
  7
STYLE3
 72
     1
 11
167.1986
 21
92.535267
 31
0.0
100
AcDbText
 73
     2
  0
TEXT
  5
25F
100
AcDbEntity
  8
TEXT
 62
     7
100
AcDbText
 10
166.46289
 20
92.008982
 30
0.0
 40
0.126
  1
1.30
  7
STYLE3
 72
     1
 11
166.60149
 21
92.071982
 31
0.0
100
AcDbText
 73
     2
  0
TEXT
  5
260
100
AcDbEntity
  8
TEXT
 62
     7
100
AcDbText
 10
166.49754
 20
91.678569
 30
0.0
 40
0.126
  1
.10
  7
STYLE3
 72
     1
 11
166.60149
 21
91.741569
 31
0.0
100
AcDbText
 73
     2
  0
TEXT
  5
261
100
AcDbEntity
  8
TEXT
 62
     7
100
AcDbText
 10
167.578688
 20
92.008982
 30
0.0
 40
0.126
  1
1.40
  7
STYLE3
 72
     1
 11
167.717288
 21
92.071982
 31
0.0
100
AcDbText
 73
     2
  0
LINE
  5
262
100
AcDbEntity
  8
TEXT
 62
     7
100
AcDbLine
 10
167.135271
 20
92.767954
 30
0.0
 11
167.135271
 21
91.567954
 31
0.0
  0
TEXT
  5
263
100
AcDbEntity
  8
TEXT
 62
     7
100
AcDbText
 10
167.613338
 20
91.678569
 30
0.0
 40
0.126
  1
.25
  7
STYLE3
 72
     1
 11
167.717288
 21
91.741569
 31
0.0
100
AcDbText
 73
     2
  0
TEXT
  5
264
100
AcDbEntity
  8
TEXT
 62
     7
100
AcDbText
 10
167.02764
 20
91.328569
 30
0.0
 40
0.126
  1
.41
  7
STYLE3
 72
     1
 11
167.13159
 21
91.391569
 31
0.0
100
AcDbText
 73
     2
  0
TEXT
  5
265
100
AcDbEntity
  8
TEXT
 62
     7
100
AcDbText
 10
167.054672
 20
90.975569
 30
0.0
 40
0.126
  1
.20
  7
STYLE3
 72
     1
 11
167.158622
 21
91.038569
 31
0.0
100
AcDbText
 73
     2
  0
TEXT
  5
266
100
AcDbEntity
  8
TEXT
 62
     7
100
AcDbText
 10
169.170269
 20
92.944097
 30
0.0
 40
0.126
  1
INCHES
  7
STYLE3
 72
     1
 11
169.378169
 21
93.007097
 31
0.0
100
AcDbText
 73
     2
  0
TEXT
  5
267
100
AcDbEntity
  8
TEXT
 62
     7
100
AcDbText
 10
168.963936
 20
92.472267
 30
0.0
 40
0.126
  1
MIN.      MAX.
  7
STYLE3
 72
     1
 11
169.449036
 21
92.535267
 31
0.0
100
AcDbText
 73
     2
  0
TEXT
  5
268
100
AcDbEntity
  8
TEXT
 62
     7
100
AcDbText
 10
169.295363
 20
91.328569
 30
0.0
 40
0.126
  1
.016
  7
STYLE3
 72
     1
 11
169.433963
 21
91.391569
 31
0.0
100
AcDbText
 73
     2
  0
TEXT
  5
269
100
AcDbEntity
  8
TEXT
 62
     7
100
AcDbText
 10
169.295363
 20
90.975569
 30
0.0
 40
0.126
  1
.008
  7
STYLE3
 72
     1
 11
169.433963
 21
91.038569
 31
0.0
100
AcDbText
 73
     2
  0
TEXT
  5
26A
100
AcDbEntity
  8
TEXT
 62
     7
100
AcDbText
 10
168.718676
 20
92.008982
 30
0.0
 40
0.126
  1
.051
  7
STYLE3
 72
     1
 11
168.857276
 21
92.071982
 31
0.0
100
AcDbText
 73
     2
  0
LINE
  5
26B
100
AcDbEntity
  8
TEXT
 62
     7
100
AcDbLine
 10
169.433009
 20
92.767954
 30
0.0
 11
169.433009
 21
91.567954
 31
0.0
  0
TEXT
  5
26C
100
AcDbEntity
  8
TEXT
 62
     7
100
AcDbText
 10
168.718676
 20
91.678569
 30
0.0
 40
0.126
  1
.004
  7
STYLE3
 72
     1
 11
168.857276
 21
91.741569
 31
0.0
100
AcDbText
 73
     2
  0
TEXT
  5
26D
100
AcDbEntity
  8
TEXT
 62
     7
100
AcDbText
 10
169.833777
 20
92.008982
 30
0.0
 40
0.126
  1
.055
  7
STYLE3
 72
     1
 11
169.972377
 21
92.071982
 31
0.0
100
AcDbText
 73
     2
  0
TEXT
  5
26E
100
AcDbEntity
  8
TEXT
 62
     7
100
AcDbText
 10
169.833777
 20
91.678569
 30
0.0
 40
0.126
  1
.010
  7
STYLE3
 72
     1
 11
169.972377
 21
91.741569
 31
0.0
100
AcDbText
 73
     2
  0
LINE
  5
26F
100
AcDbEntity
  8
TEXT
 62
     7
100
AcDbLine
 10
170.42419
 20
91.917954
 30
0.0
 11
170.425877
 21
91.917954
 31
0.0
  0
LINE
  5
270
100
AcDbEntity
  8
TEXT
 62
     7
100
AcDbLine
 10
170.42419
 20
92.267954
 30
0.0
 11
170.425877
 21
92.267954
 31
0.0
  0
POLYLINE
  5
271
100
AcDbEntity
  8
DIM
 62
     7
100
AcDb2dPolyline
 66
     1
 10
0.0
 20
0.0
 30
0.0
 70
     1
  0
VERTEX
  5
272
100
AcDbEntity
  8
DIM
 62
     7
100
AcDbVertex
100
AcDb2dVertex
 10
162.701946
 20
101.248297
 30
0.0
  0
VERTEX
  5
273
100
AcDbEntity
  8
DIM
 62
     7
100
AcDbVertex
100
AcDb2dVertex
 10
162.901946
 20
101.648297
 30
0.0
  0
VERTEX
  5
274
100
AcDbEntity
  8
DIM
 62
     7
100
AcDbVertex
100
AcDb2dVertex
 10
163.101946
 20
101.248297
 30
0.0
  0
VERTEX
  5
275
100
AcDbEntity
  8
DIM
 62
     7
100
AcDbVertex
100
AcDb2dVertex
 10
162.701946
 20
101.248297
 30
0.0
  0
SEQEND
  5
276
100
AcDbEntity
  8
0
  0
POLYLINE
  5
277
100
AcDbEntity
  8
DIM
 62
     7
100
AcDb2dPolyline
 66
     1
 10
0.0
 20
0.0
 30
0.0
 70
     1
  0
VERTEX
  5
278
100
AcDbEntity
  8
DIM
 62
     7
100
AcDbVertex
100
AcDb2dVertex
 10
164.461904
 20
101.126611
 30
0.0
  0
VERTEX
  5
279
100
AcDbEntity
  8
DIM
 62
     7
100
AcDbVertex
100
AcDb2dVertex
 10
164.661904
 20
101.526611
 30
0.0
  0
VERTEX
  5
27A
100
AcDbEntity
  8
DIM
 62
     7
100
AcDbVertex
100
AcDb2dVertex
 10
164.861904
 20
101.126611
 30
0.0
  0
VERTEX
  5
27B
100
AcDbEntity
  8
DIM
 62
     7
100
AcDbVertex
100
AcDb2dVertex
 10
164.461904
 20
101.126611
 30
0.0
  0
SEQEND
  5
27C
100
AcDbEntity
  8
0
  0
POLYLINE
  5
27D
100
AcDbEntity
  8
DIM
 62
     7
100
AcDb2dPolyline
 66
     1
 10
0.0
 20
0.0
 30
0.0
 70
     1
  0
VERTEX
  5
27E
100
AcDbEntity
  8
DIM
 62
     7
100
AcDbVertex
100
AcDb2dVertex
 10
164.461904
 20
100.245649
 30
0.0
  0
VERTEX
  5
27F
100
AcDbEntity
  8
DIM
 62
     7
100
AcDbVertex
100
AcDb2dVertex
 10
164.661904
 20
100.645649
 30
0.0
  0
VERTEX
  5
280
100
AcDbEntity
  8
DIM
 62
     7
100
AcDbVertex
100
AcDb2dVertex
 10
164.861904
 20
100.245649
 30
0.0
  0
VERTEX
  5
281
100
AcDbEntity
  8
DIM
 62
     7
100
AcDbVertex
100
AcDb2dVertex
 10
164.461904
 20
100.245649
 30
0.0
  0
SEQEND
  5
282
100
AcDbEntity
  8
0
  0
POLYLINE
  5
283
100
AcDbEntity
  8
DIM
 62
     7
100
AcDb2dPolyline
 66
     1
 10
0.0
 20
0.0
 30
0.0
 70
     1
  0
VERTEX
  5
284
100
AcDbEntity
  8
DIM
 62
     7
100
AcDbVertex
100
AcDb2dVertex
 10
164.461904
 20
99.639027
 30
0.0
  0
VERTEX
  5
285
100
AcDbEntity
  8
DIM
 62
     7
100
AcDbVertex
100
AcDb2dVertex
 10
164.661904
 20
100.039027
 30
0.0
  0
VERTEX
  5
286
100
AcDbEntity
  8
DIM
 62
     7
100
AcDbVertex
100
AcDb2dVertex
 10
164.861904
 20
99.639027
 30
0.0
  0
VERTEX
  5
287
100
AcDbEntity
  8
DIM
 62
     7
100
AcDbVertex
100
AcDb2dVertex
 10
164.461904
 20
99.639027
 30
0.0
  0
SEQEND
  5
288
100
AcDbEntity
  8
0
  0
POLYLINE
  5
289
100
AcDbEntity
  8
DIM
 62
     7
100
AcDb2dPolyline
 66
     1
 10
0.0
 20
0.0
 30
0.0
 70
     1
  0
VERTEX
  5
28A
100
AcDbEntity
  8
DIM
 62
     7
100
AcDbVertex
100
AcDb2dVertex
 10
164.461904
 20
99.038025
 30
0.0
  0
VERTEX
  5
28B
100
AcDbEntity
  8
DIM
 62
     7
100
AcDbVertex
100
AcDb2dVertex
 10
164.661904
 20
99.438025
 30
0.0
  0
VERTEX
  5
28C
100
AcDbEntity
  8
DIM
 62
     7
100
AcDbVertex
100
AcDb2dVertex
 10
164.861904
 20
99.038025
 30
0.0
  0
VERTEX
  5
28D
100
AcDbEntity
  8
DIM
 62
     7
100
AcDbVertex
100
AcDb2dVertex
 10
164.461904
 20
99.038025
 30
0.0
  0
SEQEND
  5
28E
100
AcDbEntity
  8
0
  0
POLYLINE
  5
28F
100
AcDbEntity
  8
DIM
 62
     7
100
AcDb2dPolyline
 66
     1
 10
0.0
 20
0.0
 30
0.0
 70
     1
  0
VERTEX
  5
290
100
AcDbEntity
  8
DIM
 62
     7
100
AcDbVertex
100
AcDb2dVertex
 10
158.74708
 20
96.283322
 30
0.0
  0
VERTEX
  5
291
100
AcDbEntity
  8
DIM
 62
     7
100
AcDbVertex
100
AcDb2dVertex
 10
158.94708
 20
96.683322
 30
0.0
  0
VERTEX
  5
292
100
AcDbEntity
  8
DIM
 62
     7
100
AcDbVertex
100
AcDb2dVertex
 10
159.14708
 20
96.283322
 30
0.0
  0
VERTEX
  5
293
100
AcDbEntity
  8
DIM
 62
     7
100
AcDbVertex
100
AcDb2dVertex
 10
158.74708
 20
96.283322
 30
0.0
  0
SEQEND
  5
294
100
AcDbEntity
  8
0
  0
POLYLINE
  5
295
100
AcDbEntity
  8
DIM
 62
     7
100
AcDb2dPolyline
 66
     1
 10
0.0
 20
0.0
 30
0.0
 70
     1
  0
VERTEX
  5
296
100
AcDbEntity
  8
DIM
 62
     7
100
AcDbVertex
100
AcDb2dVertex
 10
164.598565
 20
91.957161
 30
0.0
  0
VERTEX
  5
297
100
AcDbEntity
  8
DIM
 62
     7
100
AcDbVertex
100
AcDb2dVertex
 10
164.798565
 20
92.357161
 30
0.0
  0
VERTEX
  5
298
100
AcDbEntity
  8
DIM
 62
     7
100
AcDbVertex
100
AcDb2dVertex
 10
164.998565
 20
91.957161
 30
0.0
  0
VERTEX
  5
299
100
AcDbEntity
  8
DIM
 62
     7
100
AcDbVertex
100
AcDb2dVertex
 10
164.598565
 20
91.957161
 30
0.0
  0
SEQEND
  5
29A
100
AcDbEntity
  8
0
  0
LINE
  5
29B
100
AcDbEntity
  8
DIM
 62
     7
100
AcDbLine
 10
172.782998
 20
92.847307
 30
0.0
 11
172.382998
 21
92.847307
 31
0.0
  0
POLYLINE
  5
29C
100
AcDbEntity
  8
DIM
 62
     7
100
AcDb2dPolyline
 66
     1
 10
0.0
 20
0.0
 30
0.0
  0
VERTEX
  5
29D
100
AcDbEntity
  8
DIM
 62
     7
100
AcDbVertex
100
AcDb2dVertex
 10
172.382998
 20
92.847307
 30
0.0
  0
VERTEX
  5
29E
100
AcDbEntity
  8
DIM
 62
     7
100
AcDbVertex
100
AcDb2dVertex
 10
172.582998
 20
93.247307
 30
0.0
  0
VERTEX
  5
29F
100
AcDbEntity
  8
DIM
 62
     7
100
AcDbVertex
100
AcDb2dVertex
 10
172.782998
 20
92.847307
 30
0.0
  0
SEQEND
  5
2A0
100
AcDbEntity
  8
0
  0
LINE
  5
2A1
100
AcDbEntity
  8
STANDARD
 62
     7
100
AcDbLine
 10
167.140322
 20
95.138069
 30
0.0
 11
167.282922
 21
95.138069
 31
0.0
  0
LINE
  5
2A2
100
AcDbEntity
  8
STANDARD
 62
     7
100
AcDbLine
 10
171.325521
 20
95.138069
 30
0.0
 11
171.182922
 21
95.138069
 31
0.0
  0
ENDSEC
  0
SECTION
  2
OBJECTS
  0
DICTIONARY
  5
19
100
AcDbDictionary
  3
ACAD_GROUP
350
1A
  3
ACAD_MLINESTYLE
350
1B
  0
DICTIONARY
  5
1A
102
{ACAD_REACTORS
330
19
102
}
100
AcDbDictionary
  0
DICTIONARY
  5
1B
102
{ACAD_REACTORS
330
19
102
}
100
AcDbDictionary
  3
STANDARD
350
1C
  0
MLINESTYLE
  5
1C
102
{ACAD_REACTORS
330
1B
102
}
100
AcDbMlineStyle
  2
STANDARD
 70
     0
  3

 62
     0
 51
90.0
 52
90.0
 71
     2
 49
0.5
 62
   256
  6
BYLAYER
 49
-0.5
 62
   256
  6
BYLAYER
  0
ENDSEC
  0
EOF
